Sound will begin in 5 seconds

Artic Monkeys - Red Lights + Vampires

Chords
01234567891011121314151617181920212223
E
B
G
D
A
E
B
0 1 2 3 4 5 6 7 8 9 10 11 12 13 14 15 16 17 18 19 20 21 22 23
Song Science #1: How Pros Use 6 Chords to Write Hit Songs
(/) Slide Up  (\) Slide Down  (h) Hammer On  (p) Pull Off  (b) Bend (r) Release (v) Vibrato

Stave 1:

A|---------5-4--------------4----
E|-------5-----5-4----------5----
A|-6-6-6--------------------6----
G|--------------------------6----

Stave 2:

A|----------------------|----------------------|----------------------|-4-4----0-0----4-4----7-7-
E|-5/7------------5-----|-5/7------------5-----|----------------------|-5-5----0-0----1-1----4-4-
A|-----6----6-4-6---6-4-|-----6----6-4-6---6-4-|-6-4-1----1-1-1-4-1-4-|-6-6----1-1----1-1----4-4-
G|----------------------|----------------------|----------------------|-6-6----2-2----1-1----4-4-

http://www.guitartabcreator.com
Guitar Tab Creator is intended to store guitar tab created through the tool. It currently does not support in-line text editing. Any text you place in here will be lost. If you need to comment on your tab, please use the "Tab Notes" section located below.