Sound will begin in 5 seconds

Artic Monkeys - i bet that you look good on the dancefloor

Chords
01234567891011121314151617181920212223
E
B
G
D
A
E
B
0 1 2 3 4 5 6 7 8 9 10 11 12 13 14 15 16 17 18 19 20 21 22 23
Song Science #1: How Pros Use 6 Chords to Write Hit Songs
(/) Slide Up  (\) Slide Down  (h) Hammer On  (p) Pull Off  (b) Bend (r) Release (v) Vibrato

Stave 1:

A|-----1-----1--------x-----x-----x-----x-----|-----------7--------
E|-----2-----2--------x-----x-----x-----x-----|-----------6--------
A|-----1-----1--------x-----x-----x-----x-----|-----------6--------
G|-----3-----3--------x-----x-----x-----x-----|-----------6--------

Stave 2:

A|-----------------------------------------------------------------------------7-----7-----7-----9-----9-----9-----12-----12-----12-----14-----14-----14-----14b17-----14b17-----14b17-----
E|-----------------------------------------7-----7-----7-----9-----9-----9-----------------------------------------------------------------------------------------------------------------
A|-----6-----6-----6-----9-----9-----9-----------------------------------------------------------------------------------------------------------------------------------------------------
G|-----------------------------------------------------------------------------------------------------------------------------------------------------------------------------------------

Stave 3:

A|-----14-----12-----14-----12-----9------------9-----12-----14-----12-----9------------9-----12-----14-----|-----14-----14-----14-----14-----12-----9------------9-----12-----9--------|-----
E|---------------------------------------12--------------------------------------12-------------------------|----------------------------------------------12---------------------------|-----
A|----------------------------------------------------------------------------------------------------------|---------------------------------------------------------------------------|-----
G|----------------------------------------------------------------------------------------------------------|---------------------------------------------------------------------------|-----

Stave 4:

A|-----9-----9-----9-----9-----7-----------7-----------------------------------------------------------------------------------------------------------
E|-----------------------------------9-----------9-----7-----5-----------5-----7-----9-----7-----5-----------5-----7-----9-----7-----5-----------9-----
A|-----------------------------------------------------------------6-----------------------------------6-----------------------------------6-----------
G|-----------------------------------------------------------------------------------------------------------------------------------------------------

Stave 5:

A|-----8------6-----6-----1-----
E|-----9------7-----5-----2-----
A|-----8------6-----4-----1-----
G|-----10-----8-----6-----3-----

http://www.guitartabcreator.com
Guitar Tab Creator is intended to store guitar tab created through the tool. It currently does not support in-line text editing. Any text you place in here will be lost. If you need to comment on your tab, please use the "Tab Notes" section located below.