Sound will begin in 5 seconds

Artic Monkeys - A Certain Romance

Chords
01234567891011121314151617181920212223
E
B
G
D
A
E
B
0 1 2 3 4 5 6 7 8 9 10 11 12 13 14 15 16 17 18 19 20 21 22 23
Song Science #1: How Pros Use 6 Chords to Write Hit Songs
(/) Slide Up  (\) Slide Down  (h) Hammer On  (p) Pull Off  (b) Bend (r) Release (v) Vibrato

Stave 1:

A|----------------2-2-2-x-x-x-x----
E|----10-12-------2-2-2-x-x-x-x----
A|-11-------------3-3-3-x-x-x-x----
G|----------------4-4-4-x-x-x-x----

Stave 2:

A|-6----6----6-6-6----9-9-7-6----6-6-6----11-11-11-6----13-13-13-13-13----11----
E|-7----7----7-7-7----7-7-7-7----7-7-7----7--7--7--7----7--7--7--7--7-----7-----
A|-6----------------------------------------------------------------------------
G|-6----------------------------------------------------------------------------

Stave 3:

A|------0----------------------------------------2-2-2-2----
E|-7----7----7-7-7-9----7-4-------9----7-4-------3-3-3-3----
A|-6----6----6-6-6-6----6-4-------6----6-4-------4-4-4-4----
G|----------------------------------------------------------

Stave 4:

A|-6-------4-------
E|-7-------4-------
A|-6-------4-------
G|-8-------6-------

http://www.guitartabcreator.com
Guitar Tab Creator is intended to store guitar tab created through the tool. It currently does not support in-line text editing. Any text you place in here will be lost. If you need to comment on your tab, please use the "Tab Notes" section located below.