Sound will begin in 5 seconds

Road Rash 3 United Kingdom

Chords
01234567891011121314151617181920212223
E
B
G
D
A
E
B
0 1 2 3 4 5 6 7 8 9 10 11 12 13 14 15 16 17 18 19 20 21 22 23
Top Courses in Music 160x600
(/) Slide Up  (\) Slide Down  (h) Hammer On  (p) Pull Off  (b) Bend (r) Release (v) Vibrato

Stave 1:

E|----------------------------------------------------------------------
B|----------------------------------------------------------------------
G|----------------------------------------------------------------------
D|-7----7-8-8----7-8-7-5-3-2------1-3-------------------3-3-1-1---------
A|-7----7-8-8----7-8-7-5-3-2----3-------------------------------3-2-1---
E|-5----5-6-6----5-6-5-3-1-0----------1-1-1-1-1-1-1-1-1---------------1-

Stave 2:

E|-12b13-13-12b13-13-12b13-13-12b13-13-12b13-13---------------------------
B|----------------------------------------------12-12---------------------
G|----------------------------------------------------13------------------
D|------------------------------------------------------------3-1---------
A|----------------------------------------------------------3-----3-------
E|------------------------------------------------------------------0-1-1-

Stave 3:

E|-12b13-13-12b13-13-12b13-13-12b13-13-12b13-13-16b18------------------
B|---------------------------------------------------------------------
G|---------------------------------------------------------------------
D|---------------------------------------------------------3-1---------
A|-------------------------------------------------------3-----3-------
E|---------------------------------------------------------------0-1-1-

Stave 4:

E|-12b13-13-12b13-13-12b13-13-12b13-13-12b13-13------------------------------
B|----------------------------------------------11h12-12---------------------
G|-------------------------------------------------------13------------------
D|---------------------------------------------------------------3-1---------
A|-------------------------------------------------------------3-----3-------
E|---------------------------------------------------------------------0-1-1-

Stave 5:

E|-12b13-13-12b13-13-12b13-13-12b13-13-12b13-13-11b13------------------
B|---------------------------------------------------------------------
G|---------------------------------------------------------------------
D|---------------------------------------------------------------------
A|---------------------------------------------------------------------
E|-------------------------------------------------------0-1-1-2-3-4-4-

Stave 6:

E|-12b13-13-12b13-13-12b13-13-12b13-13-12b13-13---------------------
B|----------------------------------------------12-12---------------
G|----------------------------------------------------13------------
D|------------------------------------------------------------------
A|------------------------------------------------------------------
E|----------------------------------------------------------2-3-4-4-

Stave 7:

E|-12b13-13-12b13-13-12b13-13-12b13-13-12b13-13-16b18------------------
B|---------------------------------------------------------------------
G|---------------------------------------------------------------------
D|---------------------------------------------------------3-1---------
A|-------------------------------------------------------3-----3-------
E|---------------------------------------------------------------0-1-1-

Stave 8:

E|-12b13-13-12b13-13-12b13-13-12b13-13-12b13-13------------------------------
B|----------------------------------------------11h12-12---------------------
G|-------------------------------------------------------13------------------
D|---------------------------------------------------------------3-1---------
A|-------------------------------------------------------------3-----3-------
E|---------------------------------------------------------------------0-1-1-

Stave 9:

E|-12b13-13-12b13-13-12b13-13-12b13-13-12b13-13-21b23-23-21-19-18-17-15-17b17b----15-17-15v-
B|------------------------------------------------------------------------------------------
G|------------------------------------------------------------------------------------------
D|------------------------------------------------------------------------------------------
A|------------------------------------------------------------------------------------------
E|------------------------------------------------------------------------------------------

Stave 10:

E|-----------------------------------------------------------------8-----
B|--------------------------------------------4-6----4-6----4-6------6v-b
G|-------------------------------------3---------------------------------
D|---3-1----------2-3----2-3----2-3----3-3-------------------------------
A|-------3--------2-3----2-3----2-3----1-3-------------------------------
E|-1-------0-1----0-1----0-1----0-1------1-------------------------------

Stave 11:

E|--------------------------------------------------------------------------
B|--------------------------------------------------------------------------
G|--------------------------------1-------------------------------------1---
D|-1-3-1-3-1-3-1-3----1-3-1-3-1-3---3----1-3-1-3-1-3-1-3----1-3-1-3-1-3---3-
A|--------------------------------------------------------------------------
E|--------------------------------------------------------------------------

Stave 12:

E|-------------------------------
B|-------------------------------
G|-4-3-2------3-2-1------2-1-0---
D|-------3----------1------------
A|-----------------------------3-
E|-------------------------------

http://www.guitartabcreator.com
Guitar Tab Creator is intended to store guitar tab created through the tool. It currently does not support in-line text editing. Any text you place in here will be lost. If you need to comment on your tab, please use the "Tab Notes" section located below.