Sound will begin in 5 seconds

You Know My Father (2nd Verse Lick)

01234567891011121314151617181920212223
E
B
G
D
A
E
B
0 1 2 3 4 5 6 7 8 9 10 11 12 13 14 15 16 17 18 19 20 21 22 23
Song Science #1: How Pros Use 6 Chords to Write Hit Songs
(/) Slide Up  (\) Slide Down  (h) Hammer On  (p) Pull Off  (b) Bend (r) Release (v) Vibrato

Stave 1:

E|----------3-------------3-------------8--------------3--------
B|--------------------------------------------------------------
G|-----3h4-----------3h4-----------8h9------------3h4-----------
D|-------------5-------------5-------------10-------------5-----
A|--------------------------------------------------------------
E|--------------------------------------------------------------

Stave 2:

E|---------10--------------------------8-----------------3-----
B|-------------------------------------------------------------
G|--10h11------11------12--11-----8h9-----9---------3h4--------
D|-----------------12------------------------10-------------5--
A|-------------------------------------------------------------
E|-------------------------------------------------------------

Stave 3:

E|---------15----------------15--------------8----------------15------
B|--------------------------------------------------------------------
G|--15h16-------------15h16-------------8h9------------15h16----------
D|-------------17----------------17-------------10----------------17--
A|--------------------------------------------------------------------
E|--------------------------------------------------------------------

Stave 4:

E|---------10--------------------------8--------------------------------------------
B|----------------------------------------------------------------------------------
G|--10h11------11------12--11-----8h9-----9--------------0--------------------------
D|-----------------12------------------------10-------------------------------------
A|--------------------------------------------------1h2-----------------------------
E|----------------------------------------------------------3--3--3--3--3--3--3--3--

http://www.guitartabcreator.com
Guitar Tab Creator is intended to store guitar tab created through the tool. It currently does not support in-line text editing. Any text you place in here will be lost. If you need to comment on your tab, please use the "Tab Notes" section located below.