Sound will begin in 5 seconds

Get Up 'n' Fight - Nexsard

01234567891011121314151617181920212223
E
B
G
D
A
E
B
0 1 2 3 4 5 6 7 8 9 10 11 12 13 14 15 16 17 18 19 20 21 22 23
Song Science #1: How Pros Use 6 Chords to Write Hit Songs
(/) Slide Up  (\) Slide Down  (h) Hammer On  (p) Pull Off  (b) Bend (r) Release (v) Vibrato

Stave 1:

E|---------------------------------------|------------------------------------------
B|---------------------------------------|------------------------------------------
G|----------------20--19-------------17--|----------------22--20--19h20p19----------
D|--17-----20/22----------20-----20------|--17-----20/22--------------------22--20--
A|---------------------------------------|------------------------------------------
E|---------------------------------------|------------------------------------------

Stave 2:

E|---------------------------------------|-------------------------------
B|-------------20--18--23--21--20\18h20--|--21--20--18-------------------
G|---------------------------------------|--------------20--19v--20--17--
D|---------------------------------------|-------------------------------
A|--17--20h22----------------------------|-------------------------------
E|---------------------------------------|-------------------------------

Stave 3:

E|---------------------------
B|---------------------------
G|---------22-----20-----19--
D|--20h22--------------------
A|---------------------------
E|---------------------------

http://www.guitartabcreator.com
Guitar Tab Creator is intended to store guitar tab created through the tool. It currently does not support in-line text editing. Any text you place in here will be lost. If you need to comment on your tab, please use the "Tab Notes" section located below.