Sound will begin in 5 seconds

Your love never fails

01234567891011121314151617181920212223
E
B
G
D
A
E
B
0 1 2 3 4 5 6 7 8 9 10 11 12 13 14 15 16 17 18 19 20 21 22 23
Song Science #1: How Pros Use 6 Chords to Write Hit Songs
(/) Slide Up  (\) Slide Down  (h) Hammer On  (p) Pull Off  (b) Bend (r) Release (v) Vibrato

Stave 1:

E|---------------------------------
B|---------------------------------
G|---------------11---------11-----
D|--9--9--11/13------9--11------9--
A|---------------------------------
E|---------------------------------

Stave 2:

E|------------------------------
B|------------------------------
G|---------------11--13------4--
D|--9--9--11/13----------11-----
A|------------------------------
E|------------------------------

Stave 3:

E|-----------------------------------------------
B|-----------------------------------------------
G|-----------------------------------------------
D|-----------9-----9--8--8-----------9-----8--8--
A|--7--9/11-----9-----------7--9/11-----9--------
E|-----------------------------------------------

Stave 4:

E|-----------------------------------------------------------------
B|-----------4--------------4-----------------7--------------5-----
G|--------4-----4--------------4-----------4-----4--------4-----4--
D|-----6-----------------4--------------8--------------6-----------
A|--7-----------------6-----------7/11--------------4--------------
E|-----------------7-----------------------------------------------

Stave 5:

E|-------------------------------------------------------
B|-----------4--------------4----------------7-----------
G|--------4-----4--------------4----------4-----4--------
D|-----6-----------------4-------------8-----------8--8--
A|--7-----------------6-----------7/9--------------------
E|-----------------7-------------------------------------

Stave 6:

E|--
B|--
G|--
D|--
A|--
E|--

http://www.guitartabcreator.com
Guitar Tab Creator is intended to store guitar tab created through the tool. It currently does not support in-line text editing. Any text you place in here will be lost. If you need to comment on your tab, please use the "Tab Notes" section located below.