Sound will begin in 5 seconds

Remembrance Day Guitar Ensemble Part 3

01234567891011121314151617181920212223
E
B
G
D
A
E
B
0 1 2 3 4 5 6 7 8 9 10 11 12 13 14 15 16 17 18 19 20 21 22 23
Top Courses in Music 160x600
(/) Slide Up  (\) Slide Down  (h) Hammer On  (p) Pull Off  (b) Bend (r) Release (v) Vibrato

(W|WW) Whole (H|HH) Half (Q|QQ) Quarter (E|EE) 8th (S|SS) 16th (T|TT) 32nd (X|XX) 64th

Stave 1:
t: E E Q E E Q Q Q Q Q Q Q Q Q Q Q Q Q Q E E E E Q Q
E|--------|-----------------|--------------|--------------|--------------|--------------------|--
B|--------|--0--------3--1--|--0-----------|--------------|--------------|--------------------|--
G|--0--2--|-----2--0--------|-----2--0--0--|--------------|--------------|--------------------|--
D|--------|-----------------|--------------|--5--5--4--5--|--------------|--------------------|--
A|--------|-----------------|--------------|--------------|--5--0--5--5--|-----0--2--3--5--5--|--
E|--------|-----------------|--------------|--------------|--------------|--3-----------------|--

Stave 2:
t: Q Q Q E E Q Q Q Q Q Q Q Q Q Q Q Q Q Q Q Q
E|-----------------|--------------|--------------|--------------|--------------|--
B|-----------------|--------------|--------------|--------------|--------------|--
G|-----------------|--------------|--------------|--------------|--------------|--
D|-----------------|--------------|--------------|--------------|--------0--0--|--
A|-----0--2--3--0--|-----0--2--3--|--2--0-----2--|--3--2--0-----|-----0--------|--
E|--3--------------|--3-----------|--------3-----|-----------3--|--2-----------|--

Stave 3:
t: E E E E Q Q Q Q Q E E Q Q H Q Q H Q Q Q Q Q Q Q Q
E|--------------------|-----------------|-----------|-----------|--------------|--------------|--
B|--------------------|-----------------|-----------|-----------|--------------|-----------3--|--
G|--------------------|-----------------|-----------|-----------|--------------|--------------|--
D|--------------0--0--|-----------------|-----------|-----------|--------------|--------------|--
A|-----0--2--3--------|-----0--2-----0--|--2--0-----|--3--2--0--|--3--2--0--3--|--5--0--5-----|--
E|--2-----------------|--3--------3-----|--------3--|-----------|--------------|--------------|--

Stave 4:
t: Q E E Q Q Q E E Q Q Q Q Q Q Q Q E E E E Q Q Q Q
E|-----------------|-----------------|--------------|--------------------|--------------|--
B|--1--------------|-----------------|--------------|--------------------|--------------|--
G|-----4--2--4--0--|-----------------|--------------|--------------------|--------------|--
D|-----------------|-----------------|--------------|--------------------|--------------|--
A|-----------------|--3--2--0--2-----|--0--2--3--4--|--5--0--5--3--2--0--|-----5--2--3--|--
E|-----------------|--------------0--|--------------|--------------------|--3-----------|--

Stave 5:
t: Q Q Q Q Q Q Q Q Q Q Q Q E E E E Q Q H
E|--------------|--------------|--------------|--------------------|-----|--|--
B|--------------|--------------|--------------|--------------------|-----|--|--
G|--------------|--------------|--------------|--------------------|-----|--|--
D|--------------|--------------|--------0-----|--------------------|-----|--|--
A|--2--0--------|--3--2--0-----|-----0--------|-----0--2--3--5--5--|-----|--|--
E|--------3--3--|-----------3--|--2--------2--|--3-----------------|--3--|--|--

http://www.guitartabcreator.com
Guitar Tab Creator is intended to store guitar tab created through the tool. It currently does not support in-line text editing. Any text you place in here will be lost. If you need to comment on your tab, please use the "Tab Notes" section located below.