Sound will begin in 5 seconds

Section 3

01234567891011121314151617181920212223
E
B
G
D
A
E
B
0 1 2 3 4 5 6 7 8 9 10 11 12 13 14 15 16 17 18 19 20 21 22 23
Top Courses in Music 160x600
(/) Slide Up  (\) Slide Down  (h) Hammer On  (p) Pull Off  (b) Bend (r) Release (v) Vibrato

Stave 1:

Bb|--/12--12--12--12--12--12--------------/12--12--12--12--12--12--------------/12--0---/15--0---/12--0---/10--0--12--0--10-----
F |-----------------------------------------------------------------------------------------------------------------------------
Bb|---------------------------0--0--2/3--0-------------------------0--0--2/3--0-------------------------------------------------
E |-----------------------------------------------------------------------------------------------------------------------------

Stave 2:

Bb|--0--7/8--0--5--0--3--0---/12--12--12--12--12--12--------------/12--12--12--12--12--12----------------12--0--10--0--------
F |--------------------------------------------------------------------------------------------------------------------------
Bb|---------------------------------------------------0--0--2/3--0-------------------------0--0--2/3--0----------------------
E |--------------------------------------------------------------------------------------------------------------------------

Stave 3:

Bb|--9--0--7--0---/5--5---/9--9---/12---/15---/17--17---/21--17---/17--15--12--0--10--0--7/8--0--5--0--3--0---/12--12--12--12--12--12--------------/12--12--12--12--12--12--------------/12--12--12--12--12--12--------------/12--12--12--12--12--12--------------/7--7--7--7--7--7---/10--0--7--7--6--5--5---/9--9---/10--10---/11--11/12--12--12--12--12--12--------------/12--12--12--12--12--12--------------/7--7---/7--7---/7--7---/7--7----------------
F |-----------------------------------------------------------------------------------------------------------------------------------------------------------------------------------------------------------------------------------------------------------------------------------------------------------------------------------------------------------------------------------------------------------------------------------------------------------
Bb|------------------------------------------------------------------------------------------------------------------------------------0--0--2/3--0-------------------------0--0--2/3--0-------------------------0--0--2/3--0-------------------------0--0--2/3--0----------------------------------------------------------------------------------------------0--0--2/3--0-------------------------0--0--2/3--0-----------------------------------\---------
E |-----------------------------------------------------------------------------------------------------------------------------------------------------------------------------------------------------------------------------------------------------------------------------------------------------------------------------------------------------------------------------------------------------------------------------------------------------------

http://www.guitartabcreator.com
Guitar Tab Creator is intended to store guitar tab created through the tool. It currently does not support in-line text editing. Any text you place in here will be lost. If you need to comment on your tab, please use the "Tab Notes" section located below.