Sound will begin in 5 seconds

Pre-Gig Warm Up

01234567891011121314151617181920212223
E
B
G
D
A
E
B
0 1 2 3 4 5 6 7 8 9 10 11 12 13 14 15 16 17 18 19 20 21 22 23
Top Courses in Music 160x600
(/) Slide Up  (\) Slide Down  (h) Hammer On  (p) Pull Off  (b) Bend (r) Release (v) Vibrato

Stave 1:

G|------------------------------------------------------------------1h2--2--1-------------------
D|---------------------0h1--------------------------------------------------------0h1-----------
A|--0h2--2--2--2p0----------2--0-----0--0--2--2--0h2--2--2--2p0---------------------------0-----
E|------------------2-------------2------------------------------2---------------------2-----0--

Stave 2:

G|-------------------------------------------------------4-----2h4--2--------------------
D|---------------------------------------------------------------------4--2--0-----------
A|--0h2--2--2--2p0-----0h2--2--0-----0-------0--2--2--2-------------------------2--0-----
E|------------------2-------------2-----0h2-------------------------------------------2--

Stave 3:

G|--------2-----------------2--------------------------------------------------------------4--
D|--------------------2--4-----4--2--------------2-----------------------------0--------------
A|--0--------2--3--4-----------------3--4--------------------------0-----0--2-----2--2--2-----
E|-----------------------------------------0--------0--0--4--4--4-----4-----------------------

Stave 4:

G|--2--3--4--2----------------------------------------------------4-----------------
D|--------------4--0h1--------------------------------------------------------------
A|-------------------------0-----0h2--2--2--2p0-----0h2--2--2--2-----2--1-----------
E|----------------------2-----2------------------2----------------------------------

Stave 5:

G|--------2-----------------------------------------------------------------4--2----------------------------
D|-----------------------0--0--1--0--2--------------------------------------------4--0h1--------------------
A|--0--------0--0--4--4-----------------------------------0--1-----2--2--2----------------2--0-----0--0--2--
E|--------------------------------------0--0--0--4--4--4----------------------------------------2-----------

Stave 6:

G|-------4--------4-----------------
D|----------------------------------
A|--0h2-----2--2-----2--2--2--2-----
E|----------------------------------

http://www.guitartabcreator.com
Guitar Tab Creator is intended to store guitar tab created through the tool. It currently does not support in-line text editing. Any text you place in here will be lost. If you need to comment on your tab, please use the "Tab Notes" section located below.