Sound will begin in 5 seconds

Sin Ti - Trío Los Panchos

Chords
01234567891011121314151617181920212223
E
B
G
D
A
E
B
0 1 2 3 4 5 6 7 8 9 10 11 12 13 14 15 16 17 18 19 20 21 22 23
Top Courses in Music 160x600
(/) Slide Up  (\) Slide Down  (h) Hammer On  (p) Pull Off  (b) Bend (r) Release (v) Vibrato

Capo Fret 2

Stave 1:

B |--------------3--5--3--5--3-----------------------2--3--2--3--4--5--3--5--3--2--
Gb|--0--1--2--3-----------------5--------------------------------------------------
D |--------------------------------2--4--2--1--0-----------------------------------
A |-----------------------------------------------4--------------------------------
E |--------------------------------------------------------------------------------
B |--------------------------------------------------------------------------------

Stave 2:

B |--3--5--3--5--3--5--3--5--3--5--3-----------3--0--
Gb|-----------------------------------3--0--3--------
D |--------------------------------------------------
A |--------------------------------------------------
E |--------------------------------------------------
B |--------------------------------------------------

Stave 3:

B |--2--3--2--3--2--3--2--3--2--3--2-----------2-----
Gb|-----------------------------------3--0--3-----3--
D |--------------------------------------------------
A |--------------------------------------------------
E |--------------------------------------------------
B |--------------------------------------------------

Stave 4:

B |--0--2--0--2--0--2--0--2--0--2--0-----------0-----------------------3--
Gb|-----------------------------------1-----1-----1--3-----------3-----0--
D |--------------------------------------0--------------------3--------0--
A |--------------------------------------------------------4--------------
E |-----------------------------------------------------5-----------------
B |-----------------------------------------------------------------3-----

http://www.guitartabcreator.com
Guitar Tab Creator is intended to store guitar tab created through the tool. It currently does not support in-line text editing. Any text you place in here will be lost. If you need to comment on your tab, please use the "Tab Notes" section located below.