Sound will begin in 5 seconds

Odiame Los Tres Reyes

Chords
01234567891011121314151617181920212223
E
B
G
D
A
E
B
0 1 2 3 4 5 6 7 8 9 10 11 12 13 14 15 16 17 18 19 20 21 22 23
Top Courses in Music 160x600
(/) Slide Up  (\) Slide Down  (h) Hammer On  (p) Pull Off  (b) Bend (r) Release (v) Vibrato

Capo Fret 2

Stave 1:

B |-----------------5--5--4--4--7--7--5--5--8--8--7--7--10--10--8--8--12--12--10--10--13--13--
Gb|--1--3--4--5--5----------------------------------------------------------------------------
D |--2--4--4--5--5--5--5--4--4--7--7--5--5--9--9--7--7--10--10--9--9--12--12--10--10--14--14--
A |-------------------------------------------------------------------------------------------
E |-------------------------------------------------------------------------------------------
B |-------------------------------------------------------------------------------------------

Stave 2:

B |--12--12--12--12--12--12--12--0--0--10--10--0--12--0--0--10--10--0--12--0--0--8--
Gb|---------------------------------------------------------------------------------
D |--12--12--12--12--12--12---------------------------------------------------------
A |---------------------------------------------------------------------------------
E |---------------------------------------------------------------------------------
B |---------------------------------------------------------------------------------

Stave 3:

B |--8--8--8--8--8--------------------------------------7--6--7--8--7--8--9--8--9--10--9--10--
Gb|-----------------------------------------7--7--7--7----------------------------------------
D |-----------------------------8--8--8--8----------------------------------------------------
A |-----------------9--9--9--9----------------------------------------------------------------
E |-------------------------------------------------------------------------------------------
B |-------------------------------------------------------------------------------------------

Stave 4:

B |--12--10--12--10------10-----------------------------
Gb|------------------12------12--9--12--9------9--------
D |----------------------------------------10-----10--9r
A |-----------------------------------------------------
E |-----------------------------------------------------
B |-----------------------------------------------------

Stave 5:

B |-----------0-----------0--5--4-----------4--7--5--------5--8--7------------
Gb|--1--3--4-----1-----1-----------5-----5-----------5--5-----------8------8--
D |-----------------2-----------------7--------------------------------10-----
A |---------------------------------------------------------------------------
E |---------------------------------------------------------------------------
B |---------------------------------------------------------------------------

Stave 6:

B |--8--8--8-----------10--10--10--------------12--12--12--------------12------15--15--15--
Gb|-----------8-----8--------------12------12--------------13------13------13--------------
D |--------------9---------------------12----------------------12--------------------------
A |----------------------------------------------------------------------------------------
E |----------------------------------------------------------------------------------------
B |----------------------------------------------------------------------------------------

Stave 7:

B |--16--0--0--16--0--0--16--0--0--16--0--0--17--0--0--17--0--0--17--0--0--17--17--
Gb|--12--------12--------12--------12--------13--------13--------13--------13--13--
D |--------------------------------------------------------------------------------
A |--------------------------------------------------------------------------------
E |--------------------------------------------------------------------------------
B |--------------------------------------------------------------------------------

Stave 8:

B |--3--1--0-----1--0--------0-----------------------------------------------------------0-----5--
Gb|-----------3--------3--1-----3--1--0--3--1--0--3--1--0--3--1--0--3--1--0--------1--------1-----
D |--------------------------------------------------------------------------2--------2-----------
A |-----------------------------------------------------------------------------2-----------------
E |-----------------------------------------------------------------------------------------------
B |-----------------------------------------------------------------------------------------------

Stave 9:

B |--12--0--0--10--0--0--12--0--0--10--0--0--12--0--0--10--0--0--12--0--0--10--0--0--
Gb|----------------------------------------------------------------------------------
D |----------------------------------------------------------------------------------
A |----------------------------------------------------------------------------------
E |----------------------------------------------------------------------------------
B |----------------------------------------------------------------------------------

Stave 10:

B |--12--0--0--8--0--0--12--0--0--8--0--0--12--8--
Gb|-----------------------------------------------
D |-----------------------------------------------
A |-----------------------------------------------
E |-----------------------------------------------
B |-----------------------------------------------

http://www.guitartabcreator.com
Guitar Tab Creator is intended to store guitar tab created through the tool. It currently does not support in-line text editing. Any text you place in here will be lost. If you need to comment on your tab, please use the "Tab Notes" section located below.