Sound will begin in 5 seconds

skinny love bon iver

Chords
01234567891011121314151617181920212223
E
B
G
D
A
E
B
0 1 2 3 4 5 6 7 8 9 10 11 12 13 14 15 16 17 18 19 20 21 22 23
Top Courses in Music 160x600
(/) Slide Up  (\) Slide Down  (h) Hammer On  (p) Pull Off  (b) Bend (r) Release (v) Vibrato

Capo Fret 5

Stave 1:

E|--0--0--0--0--0--0--0--0-----0--0--0--0--0--0--0--0-----0--0--0--0--0--0--0--0--
B|--0--0--0--0--0--0--0--0-----0--0--0--0--0--0--0--0-----0--0--0--0--0--0--0--0--
G|--0--0--0--0--0--0--0--0-----0--0--0--0--0--0--0--0-----0--0--0--0--0--0--0--0--
D|--2--2--2--2--2--2--2--2-----5--5--5--5--5--5--5--5-----0--0--0--0--0--0--0--0--
A|--2--2--2--2--2--2--2--2-----2--2--2--2--2--2--2--2-----5--5--5--5--5--5--5--5--
E|--0--0--0--0--0--0--0--0-----3--3--3--3--3--3--3--3-----3--3--3--3--3--3--3--3--

Stave 2:

E|-----
B|-----
G|--1--
D|-----
A|-----
E|-----

Stave 3:

E|--------------------------
B|--------------------------
G|--2--4--2-----2--4--2-----
D|-----------5-----------5--
A|--------------------------
E|--------------------------

Stave 4:

E|-----------------------------
B|--3--5--3--------------------
G|-----------2--4-----2--4-----
D|-----------------5--------5--
A|-----------------------------
E|-----------------------------

Stave 5:

E|--0--0--0--0-----0--0--0--0-----0--0--
B|--1--1--1--1-----0--0--0--0-----0--0--
G|--0--0--0--0-----0--0--0--0-----2--2--
D|--0--0--0--0-----0--0--0--0-----0--0--
A|--0--0--0--0-----0--0--0--0-----0--0--
E|--0--0--0--0-----0--0--0--0-----2--2--

Stave 6:

E|-----------------
B|-----------------
G|-----------------
D|-----------------
A|--5p2------------
E|-------5p3--3p0--

Stave 7:

E|--0-----0-----0--
B|--0-----0-----0--
G|--0-----0-----0--
D|--5-----4-----2--
A|--0-----0-----3--
E|--3-----2-----0--

http://www.guitartabcreator.com
Guitar Tab Creator is intended to store guitar tab created through the tool. It currently does not support in-line text editing. Any text you place in here will be lost. If you need to comment on your tab, please use the "Tab Notes" section located below.