Sound will begin in 5 seconds

Mess around cage the elephant

Chords
01234567891011121314151617181920212223
E
B
G
D
A
E
B
0 1 2 3 4 5 6 7 8 9 10 11 12 13 14 15 16 17 18 19 20 21 22 23
Top Courses in Music 160x600
(/) Slide Up  (\) Slide Down  (h) Hammer On  (p) Pull Off  (b) Bend (r) Release (v) Vibrato

Stave 1:

E|---------------------------------------------------------------------------
B|---------------------------------------------------------------------------
G|---------------------------------------------------------------------------
D|---------------------------------------------------------------------------
A|---------------------------------------------------------------------------
E|--12--12--12--12--12--3--3--3--3--3-----12--12--12--12--12--3--3--3--3--3--

Stave 2:

E|----------------------------------------------------------------------------
B|----------------------------------------------------------------------------
G|----------------------------------------------------------------------------
D|----------------------------------------------------------------------------
A|----------------------------------------------------------------------------
E|--12--12--12--12--12--3--3--3--3--3-----5--5--5--7--7--7--0--0--0--0--0--0--

Stave 3:

E|-----------------------------------
B|-----------------------------------
G|-----------------------------------
D|-----------------------------------
A|-----------------------------------
E|--5--5--7--7--7--0--0--0--0--0--0--

Stave 4:

E|--3--12-----5--7--0--
B|--5--14-----7--9--0--
G|--5--14-----7--9--1--
D|--4--13-----6--8--2--
A|--3--12-----5--7--2--
E|--3--12-----5--7--0--

Stave 5:

E|--3--------------------------------------------5--7--0--
B|--5--------------------------------------------7--9--0--
G|--5--------------------------------------------7--9--1--
D|--4--------------------------------------------6--8--2--
A|--3--7--7--5--7--7--5--7--7--5--7--5-----------5--7--2--
E|--3-----------------------------------7--5-----5--7--0--

Stave 6:

E|-----------10------14-----16--------------10--12--12p10--
B|--5/10h12------12--10-----12--10--12--12-----------------
G|------------------------------12--14---------------------
D|---------------------------------------------------------
A|---------------------------------------------------------
E|---------------------------------------------------------

Stave 7:

E|------10--12------10--12--12p12p10----------
B|--12----------12--------------------12--12--
G|--------------------------------------------
D|--------------------------------------------
A|--------------------------------------------
E|--------------------------------------------

Stave 8:

E|--10--12--12p10------10--12--12p12--12p
B|-----------------12--------------------
G|---------------------------------------
D|---------------------------------------
A|---------------------------------------
E|---------------------------------------

http://www.guitartabcreator.com
Guitar Tab Creator is intended to store guitar tab created through the tool. It currently does not support in-line text editing. Any text you place in here will be lost. If you need to comment on your tab, please use the "Tab Notes" section located below.