Sound will begin in 5 seconds

rondo through the gates

01234567891011121314151617181920212223
E
B
G
D
A
E
B
0 1 2 3 4 5 6 7 8 9 10 11 12 13 14 15 16 17 18 19 20 21 22 23
Song Science #1: How Pros Use 6 Chords to Write Hit Songs
(/) Slide Up  (\) Slide Down  (h) Hammer On  (p) Pull Off  (b) Bend (r) Release (v) Vibrato

Stave 1:

E|--------------------------12--10---------------------------------8--21b
B|--------------13--15--16----------9------------------------9--8--------
G|--11--13--14-------------------------8--6---------------9--------------
D|-----------------------------------------------9--8--7-----------------
A|-------------------------------------------10--------------------------
E|-----------------------------------------------------------------------

Stave 2:

E|--20--19--17--15--14--12--11--9--7--6--4--3--2--0--
B|---------------------------------------------------
G|---------------------------------------------------
D|---------------------------------------------------
A|---------------------------------------------------
E|---------------------------------------------------

Stave 3:

E|-------------------------------------------------
B|--2--4--------------2--4--------------2--4-------
G|--------4--6--------------------4--6--------4--6b
D|--------------6--8--------6--8-------------------
A|-------------------------------------------------
E|-------------------------------------------------

Stave 4:

E|--11--13--14------------------14--13--11--------------13--18----------------------------------
B|--------------13--15--16--15--------------12------14----------19------20--19--22--21--22--19--
G|----------------------------------------------13------------------20--------------------------
D|----------------------------------------------------------------------------------------------
A|----------------------------------------------------------------------------------------------
E|----------------------------------------------------------------------------------------------

Stave 5:

E|-------------------------------12--13---------------------
B|---------------------------11----------14-----------------
G|--------------------8--10------------------15--17---------
D|--------------6--7----------------------------------------
A|--------4--5---------------------------------------13--16p
E|--3--6----------------------------------------------------

Stave 6:

E|------------------------------------------------------------------------------23--
B|----------------------------------------------------------------------22----------
G|--------------------------------------13--14--15--------------20----------23------
D|--------------------------12--13--14------------------18----------21--------------
A|--------------11--12--13----------------------------------19----------------------
E|--10--11--12--------------------------------------16------------------------------

Stave 7:

E|-----------------------------------------------------------------
B|-----------------------------------------------------------------
G|-----------------------5--6--5--8--6--5--------------------------
D|--18\5--6--5--6--5--6--------------------6/12--12--12--13h15--14p
A|-----------------------------------------------------------------
E|-----------------------------------------------------------------

Stave 8:

E|--10--12--13--12--13--12--10---------------------------------
B|------------------------------8--10--11------------------15--
G|-----------------------------------------12----------14------
D|---------------------------------------------11--13----------
A|-------------------------------------------------------------
E|-------------------------------------------------------------

Stave 9:

E|--22--21--19--20--21--22-----------------------------------------
B|--------------------------20--21---------------------------------
G|----------------------------------19--21-------------------------
D|------------------------------------------18--19-----------------
A|--------------------------------------------------17--19--20-----
E|--------------------------------------------------------------16b

Stave 10:

E|--10h12p13p11h9--13--12v--
B|--------------------------
G|--------------------------
D|--------------------------
A|--------------------------
E|--------------------------

Stave 11:

E|------------------------------13/17--20-----------------------
B|--------------------------14-------------19-------------------
G|------------------12--15---------------------18---------------
D|--------------13---------------------------------20--17-------
A|----------13---------------------------------------------18v--
E|--12--15------------------------------------------------------

Stave 12:

E|--20--19--18--17--15--13--9v-------------------------------------------
B|------------------------------10--13-----------------------------------
G|--------------------------------------12--------------------------15v--
D|------------------------------------------12------------------14-------
A|----------------------------------------------11----------14-----------
E|--------------------------------------------------12--15---------------

Stave 13:

E|--------------------------------------------------------------9--11--
B|------------------------------------------------------10--12---------
G|------------------------------------------17--14--12-----------------
D|--------------15------------------18--16-----------------------------
A|------12----------13--15--17--19-------------------------------------
E|--11------14---------------------------------------------------------

Stave 14:

E|--------------18-----------------
B|--16-----------------------------
G|------14--15---------------------
D|------------------18\12--13--15--
A|---------------------------------
E|---------------------------------

Stave 15:

E|------------------------------------------------------
B|-----------4--6------------------------------13-------
G|--------7--------------7--8--10--11--11--12-----------
D|--4--6-----------4--6---------------------------------
A|------------------------------------------------------
E|-------------------------------------------------14v--

Stave 16:

E|--
B|--
G|--
D|--
A|--
E|--

Stave 17:

E|--
B|--
G|--
D|--
A|--
E|--

http://www.guitartabcreator.com
Guitar Tab Creator is intended to store guitar tab created through the tool. It currently does not support in-line text editing. Any text you place in here will be lost. If you need to comment on your tab, please use the "Tab Notes" section located below.