Sound will begin in 5 seconds

Take it Out

Chords
01234567891011121314151617181920212223
E
B
G
D
A
E
B
0 1 2 3 4 5 6 7 8 9 10 11 12 13 14 15 16 17 18 19 20 21 22 23
Song Science #1: How Pros Use 6 Chords to Write Hit Songs
(/) Slide Up  (\) Slide Down  (h) Hammer On  (p) Pull Off  (b) Bend (r) Release (v) Vibrato

Capo Fret 2

Stave 1:

Eb|-----------------0--0-----0--0-----0-----0-----------------0--0-----0--0-----0-----0--
Bb|-----------------0--0-----0--0-----0-----0-----------------0--0-----0--0-----0-----0--
D |-----------------0--0-----0--0-----0-----0-----------------0--0-----0--0-----0-----0--
G |--6--8--8--8--8--0--0--8--0--0--8--0--8--0--6--8--8--8--8--0--0--8--0--0--8--0--8--0--
Bb|--3--5--5--5--5--0--0--5--0--0--5--0--5--0--3--5--5--5--5--0--0--5--0--0--5--0--5--0--
F |--0--0--0--0--0--0--0--0--0--0--0--0--0--0--0--0--0--0--0--0--0--0--0--0--0--0--0--0--

Stave 2:

Eb|-----------------0--0-----0--0-----0-----0-----------------0--0-----0--0-----0-----0--
Bb|-----------------0--0-----0--0-----0-----0-----------------0--0-----0--0-----0-----0--
D |-----------------0--0-----0--0-----0-----0-----------------0--0-----0--0-----0-----0--
G |--4--6--6--6--6--0--0--6--0--0--6--0--6--0--6--8--8--8--8--0--0--8--0--0--8--0--8--0--
Bb|--1--3--3--3--3--0--0--3--0--0--3--0--3--0--3--5--5--5--5--0--0--5--0--0--5--0--5--0--
F |--0--0--0--0--0--0--0--0--0--0--0--0--0--0--0--0--0--0--0--0--0--0--0--0--0--0--0--0--

Stave 3:

Eb|------------------------------------------------------------------
Bb|------------------------------------------------------------------
D |--13--13--13--13--13--8--8--8--8--11--11--11--11--11--6--6--6--6--
G |------------------------------------------------------------------
Bb|--12--12--12--12--12--7--7--7--7--10--10--10--10--10--5--5--5--5--
F |------------------------------------------------------------------

Stave 4:

Eb|----------------------------------------------------------------------
Bb|----------------------------------------------------------------------
D |--13--13--13--13--13--8--8--8--8--11--11--11--11--11--11--11--11--11--
G |----------------------------------------------------------------------
Bb|--12--12--12--12--12--7--7--7--7--10--10--10--10--10--10--10--10--10--
F |----------------------------------------------------------------------

Stave 5:

Eb|--
Bb|--
D |--
G |--
Bb|--
F |--

Stave 6:

Eb|--1--1--1--1--0--3--3--3--3--0--0--0--0--0--0--0--0--0--0--
Bb|--1--1--1--1--0--3--3--3--3--0--0--0--0--0--0--0--0--0--0--
D |--1--1--1--1--0--3--3--3--3--0--0--0--0--0--0--0--0-----0--
G |--2--2--2--2--0--4--4--4--4--0--0--0--0--0--0--0--0--0--0--
Bb|--3--3--3--3--0--5--5--5--5--0--0--0--0--0--0--0--0--0--0--
F |--1--1--1--1--0--3--3--3--3--0--2--2--2--2--2--2--2--2--2--

Stave 7:

Eb|--1--1--1--1--0--3--3--3--3--0--5--5--5--5--0--8---8---7--7--
Bb|--1--1--1--1--0--3--3--3--3--0--5--5--5--5--0--8---8---7--7--
D |--1--1--1--1--0--3--3--3--3--0--5--5--5--5--0--8---8---7--7--
G |--2--2--2--2--0--4--4--4--4--0--6--6--6--6--0--9---9---8--8--
Bb|--3--3--3--3--0--5--5--5--5--0--7--7--7--7--0--10--10--9--9--
F |--1--1--1--1--0--3--3--3--3--0--5--5--5--5--0--8---8---7--7--

Stave 8:

Eb|--0-----------------0--------------
Bb|--0-----------------0--------------
D |--0-----------------0--------------
G |--1-----------------0--------------
Bb|--2-----------------0--------------
F |--0-----------------2--------------

Stave 9:

Eb|----------------------------------------------------------
Bb|----------------------------------------------------------
D |-------------0---------------------------0----------------
G |-----1p0-----------1p0-----0-----1p0-----------1p0-----0--
Bb|--2-------2-----2-------2-----2-------2-----2-------2-----
F |----------------------------------------------------------

Stave 10:

Eb|--------------------------------------------------
Bb|--------------------------------------------------
D |--------------------------------------------------
G |--0--0--0--0--0--0--0--0--0--0--0--0--0--0--0--0--
Bb|--0--0--0--0--0--0--0--0--0--0--0--0--0--0--0--0--
F |--0--2--2--2--0--2--2--2--0--2--2--2--0--2--2--2--

http://www.guitartabcreator.com
Guitar Tab Creator is intended to store guitar tab created through the tool. It currently does not support in-line text editing. Any text you place in here will be lost. If you need to comment on your tab, please use the "Tab Notes" section located below.