Sound will begin in 5 seconds

Quiescent by Sylosis

Chords
01234567891011121314151617181920212223
E
B
G
D
A
E
B
0 1 2 3 4 5 6 7 8 9 10 11 12 13 14 15 16 17 18 19 20 21 22 23
Song Science #1: How Pros Use 6 Chords to Write Hit Songs
(/) Slide Up  (\) Slide Down  (h) Hammer On  (p) Pull Off  (b) Bend (r) Release (v) Vibrato

Stave 1:

E|--------------------------------------
B|-----------4-----------------4--------
G|--------3-----3-----------3-----3-----
D|-----6-----------6-----6-----------6--
A|--------------------------------------
E|--0-----------------0-----------------

Stave 2:

E|-----------0--------0--2-----0--------
B|--------4-----4-----------4-----4-----
G|-----5-----------5-----------------5--
D|--------------------------------------
A|--------------------------------------
E|--4-----------------------------------

Stave 3:

E|-----0--------------4--------0-----------0--------------4--------0--------
B|-----------4-----4-----4--------4--------------4-----4-----4--------4-----
G|--------------------------------------------------------------------------
D|--------------------------------------------------------------------------
A|--4-----4-----4-----------4--------4--4-----4-----4-----------4--------4--
E|--------------------------------------------------------------------------

Stave 4:

E|-----------0-----------4--------0-----
B|-----4--------4-----------4--------4--
G|--4-----------------------------------
D|--------------------------------------
A|--------------------0-----------------
E|--4-----4--------4-----------0--------

Stave 5:

E|--------------------------------------------------------0-----------------
B|-----------0-----------------0-----------------0--------------0-----------
G|--2-----------2-----1-----------1-----------------2--------2--------2-----
D|-----------------4-----------------2--4--------------4-----------4-----4--
A|--------------------------------------5-----------------------------------
E|--2-----------------0-----------------5-----------------------------------

Stave 6:

E|-----------------------------0--------
B|-----------2--------------2-----2-----
G|-----4--------4--------4-----------4--
D|--------------------------------------
A|--------------------0-----------------
E|--4-----4--------4--------------------

Stave 7:

E|-----
B|-----
G|-----
D|--2--
A|--4--
E|--4--

Stave 8:

E|--0--
B|--0--
G|--2--
D|--4--
A|--5--
E|--5--

Stave 9:

E|--0--
B|--0--
G|--6--
D|--7--
A|--7--
E|--5--

Stave 10:

E|--0--
B|--0--
G|--1--
D|--2--
A|--2--
E|--0--

Stave 11:

E|--0--
B|--0--
G|--1--
D|--0--
A|--0--
E|-----

Stave 12:

E|-----------0-----------------0-----------------0-----------------0--------
B|-----4--------4--------4--------4--------4--------4--------4--------4-----
G|--------0--------0--------0--------0--------0--------0--------0--------0--
D|--------------------------------------------------------------------------
A|--4-----------------4-----------------4-----------------4-----------------
E|--------------------------------------------------------------------------

http://www.guitartabcreator.com
Guitar Tab Creator is intended to store guitar tab created through the tool. It currently does not support in-line text editing. Any text you place in here will be lost. If you need to comment on your tab, please use the "Tab Notes" section located below.