Sound will begin in 5 seconds

The Same-W przod

Chords
01234567891011121314151617181920212223
E
B
G
D
A
E
B
0 1 2 3 4 5 6 7 8 9 10 11 12 13 14 15 16 17 18 19 20 21 22 23
Song Science #1: How Pros Use 6 Chords to Write Hit Songs
(/) Slide Up  (\) Slide Down  (h) Hammer On  (p) Pull Off  (b) Bend (r) Release (v) Vibrato

Stave 1:

E|--------------------------------------------------------------------------------------|--
B|-----6--------6-----------6-----------5--------5--------5-----------3--------3--------|--
G|--------7--------7-----------7-----------5--------4--------4-----------3--------3-----|--
D|--------------------7--------------5--------------------------5--------------------3--|--
A|-----------------------5--------------------3--------3--------------------------------|--
E|--6--------6--------------------5--------------------------------3--------3-----------|--

Stave 2:

E|-----------------------------------------|--
B|-----5--------5-----------3--------3-----|--
G|--------5--------5-----------3--------3--|--
D|--------------------5--------------------|--
A|-----------------------------------------|--
E|--5--------5-----------3--------3--------|--

Stave 3:

E|-----------------|--
B|--6--6--5--5--3--|--
G|--7--7--5--4--3--|--
D|--7--7--5--5--3--|--
A|-----5-----3-----|--
E|--6-----5-----3--|--

Stave 4:

E|----------------|--
B|--6--10--5--10--|--
G|--7--10--5--10--|--
D|--7--10--5--10--|--
A|----------------|--
E|--6--10--5--10--|--

Stave 5:

E|------------------------|--
B|--6--10--6--6--5--5--6--|--
G|--7--10--7--7--5--5--7--|--
D|--7--10--7--7--5--5--7--|--
A|--5--8------------------|--
E|---------6--6--5--5--6--|--

http://www.guitartabcreator.com
Guitar Tab Creator is intended to store guitar tab created through the tool. It currently does not support in-line text editing. Any text you place in here will be lost. If you need to comment on your tab, please use the "Tab Notes" section located below.