Sound will begin in 5 seconds

Morador do Mato (Bass)

01234567891011121314151617181920212223
E
B
G
D
A
E
B
0 1 2 3 4 5 6 7 8 9 10 11 12 13 14 15 16 17 18 19 20 21 22 23
Top Courses in Music 160x600
(/) Slide Up  (\) Slide Down  (h) Hammer On  (p) Pull Off  (b) Bend (r) Release (v) Vibrato

Stave 1:

G|---------------------------------
D|---------------------------------
A|---------------------------------
E|-3-0-3-0-0-3-0-3-0-0-0-3-0-3-0-0-

Stave 2:

G|---------------------------------------------------------------------------------------------
D|---------------------------------------------------------------------------------------------
A|---------------------------------------------------------------6-0-6-0-0-6-0-8-0-8-0-8-0-8-8-
E|-3-0-3-0-0-3-0-3-0-3-0-3-0-3-5-6-0-6-0-0-6-0-6-0-6-0-0-6-6-6-0-------------------------------

Stave 3:

G|-------------------------------------------
D|-------------------------------------------
A|-10-0-10-0-0-10-0-10-0-10-0-0-10\3---------
E|-----------------------------------3-0-3-0-

Stave 4:

G|-------------------------------------------------------------------------------------------
D|-------------------5-5-3-3-3---------------------------------------------------------------
A|-------------------------------------------------------------6-0-6-0-0-6-0-8-0-8-0-0-8-8-8-
E|-3-0-0-3-0-3-0-3-0-----------6-0-6-0-0-6-0-6-0-6-0-0-6-6-6-0-------------------------------

Stave 5:

G|----------------------------------------------------------------------------------------
D|----------------------------------------------------------------------------------------
A|-10-0-10-0-0-10-0-10-0-10-0-0-----6-0-6-0-0-6-0-0-0-6-0-0-6-6-6-------------------------
E|------------------------------3-6-------------------------------6-0-6-0-0-6-0-0-0-6-0-0-

Stave 6:

G|-----------------------------------------------------------------------
D|-----------------------------------------------------------------------
A|---------6-0-6-0-0-6-0-8-0-8-0-8-0-8-8-10\3----------------------------
E|-6-6-6-0------------------------------------3----3-3-0-3-0-3-0-3-0-3-5-

Stave 7:

G|-
D|-
A|-
E|-

Stave 8:

G|----------------------------------------------------------------------------------------
D|--------------------8----8----8-8-8-7----7-7-8-8-8-7\6------------------8----8----10----
A|----8-8-8----8-8---------------------------------------6----6----6-6--------------------
E|----------------------------------------------------------------------------------------

Stave 9:

G|------------------------------10----
D|-10/12-12---------------10/12-------
A|----------8----8----8-0-------------
E|------------------------------------

Stave 10:

G|-------------------------------------------------------------------
D|-------------------------------------------------------------------
A|-------------------------------------------------------------------
E|-3-0-3-0-0-3-0-3-0-3-0-3-0-3-5----6-0-6-0-0-6-0-6-0-6-0-0-6-6-6----

Stave 11:

G|-----------------------------------------------------------------------
D|-----------------------------------------------------------------------
A|-6-0-6-0-0-6-0-8-0-8-0-8-0-8-8-8-10-0-10-0-0-10-0-10-0-10-0-10-0-10-10-
E|-----------------------------------------------------------------------

Stave 12:

G|------------------------------------------------------------------
D|-----------------------5-5-3-3-3----------------------------------
A|------------------------------------------------------------------
E|-3-0-3-0-0-3-0-3-0-3-0-----------6-0-6-0-0-6-0-6-0-6-0-6-0-6-6----

http://www.guitartabcreator.com
Guitar Tab Creator is intended to store guitar tab created through the tool. It currently does not support in-line text editing. Any text you place in here will be lost. If you need to comment on your tab, please use the "Tab Notes" section located below.