Sound will begin in 5 seconds

I Wish I Knew

Chords
01234567891011121314151617181920212223
E
B
G
D
A
E
B
0 1 2 3 4 5 6 7 8 9 10 11 12 13 14 15 16 17 18 19 20 21 22 23
Top Courses in Music 160x600
(/) Slide Up  (\) Slide Down  (h) Hammer On  (p) Pull Off  (b) Bend (r) Release (v) Vibrato

Stave 1:

E|------------------------------------------------------------------------
B|------------------------------------------------------------------------
G|--------------------------------------------------------8---------------
D|-8h9h10-10----8-8h9h10----8-8h9h10-8h9h10-8h9h10-8h9h10---8/10-8--------
A|-----------------------------------------------------------------11-8---
E|----------------------------------------------------------------------8-

Stave 2:

E|------------------------------------------------------------------------------
B|------------------------------------------------------------------------------
G|-------------------------------------------------8-10-10/12-------------------
D|--------10-8------8-----------8-8-8---------8------------------10-8-----------
A|------8------8-11---11p8---------------8-11-------------------------11-8------
E|-8h11--------------------8-----------------------------------------------11-8-

Stave 3:

E|---------------------------------------------------------------------8-11----8-11-8-8-
B|------------------------------------------------------9h11p9----9h11------------------
G|---------------8-8-------------------------------8h10--------10-----------------------
D|----8----------8-8----8h10-------8------------10--------------------------------------
A|-10---11-10-11---------------------11p8-11--------------------------------------------
E|---------------------------11---------------------------------------------------------

Stave 4:

E|-8\6-----------------------------------------------------
B|-----9-8-8----8\6----------------------------------------
G|------------------8-7-7----------------------------------
D|---------------------------10\8--------------------------
A|--------------------------------11-10-10----8-------8----
E|-------------------------------------------------11---10-

Stave 5:

E|----------------------------------------------------------------------------------------------
B|------------------------11-9------------------------------------------------------------------
G|----------------8-10/12------12-10-12----10/12-10---------------------------------------------
D|-----------8-10-----------------------10----------12p10\8--------------10/12-10---------------
A|------8-11------------------------------------------------11-8----8h11-------------11-8-------
E|-8-11-----------------------------------------------------------------------------------11-10-

Stave 6:

E|--------------------------------------------------------------------------------------------------
B|--------------------------------------------------------------------------------------------------
G|------10-9-8---7------------------------------------------------------------11/13-11h13-10-8h10-6-
D|-6/10--------9-----6/10----10-11-8-10h11p8-5/8---------8/11---------------------------------------
A|-----------------8--------------------------------8h11------11-10-9-9-11-13-----------------------
E|--------------------------------------------------------------------------------------------------

Stave 7:

E|---------------
B|-9/13-13-13----
G|---------------
D|---------------
A|---------------
E|---------------

Stave 8:

E|----------------11-
B|-------11-13-14----
G|-10-13-------------
D|-------------------
A|-------------------
E|-------------------

http://www.guitartabcreator.com
Guitar Tab Creator is intended to store guitar tab created through the tool. It currently does not support in-line text editing. Any text you place in here will be lost. If you need to comment on your tab, please use the "Tab Notes" section located below.