Sound will begin in 5 seconds

Soul serenade Bridge

01234567891011121314151617181920212223
E
B
G
D
A
E
B
0 1 2 3 4 5 6 7 8 9 10 11 12 13 14 15 16 17 18 19 20 21 22 23
Song Science #1: How Pros Use 6 Chords to Write Hit Songs
(/) Slide Up  (\) Slide Down  (h) Hammer On  (p) Pull Off  (b) Bend (r) Release (v) Vibrato

Stave 1:

E|---------------------------------------5---5-5-------5-5-----------------
B|-8b10v-------10b8-5-8---5v----h8v----5---8-----8-5-------5---5-------8b9-
G|----------------------7----------------------------7-------7-------------
D|-------------------------------------------------------------------------
A|-------------------------------------------------------------------------
E|-------------------------------------------------------------------------

Stave 2:

E|-------5--------------5b7-----------------------------------12----------------
B|-5-5-8---8b10-8-5---5-----8------------------------10-12b15----14b12-12b14-12b
G|------------------7---------7-5---7b9-7b------9-11----------------------------
D|--------------------------------7---------------------------------------------
A|------------------------------------------------------------------------------
E|------------------------------------------------------------------------------

Stave 3:

E|-------------12--------------------------------------------14-------14----------------
B|-------12b15----14b12-10--------------------10-12----10-------14-17-------------------
G|-9-9-9-------------------11b13-9v----9-9h11-------11-------------------16-14----14----
D|-----------------------------------------------------------------------------16-------
A|--------------------------------------------------------------------------------------
E|--------------------------------------------------------------------------------------

Stave 4:

E|------------------------------------------------------------------------------------------------
B|------------------------------------------------------------------------------------------------
G|-14-16-16b19-18b16-14----------12b14-12b14v----7b9b7p5---5h7v--------5-7-7b9-5---5--------------
D|----------------------16b18-14-------------------------7---------5h7-----------7---5------5-7-7-
A|-------------------------------------------------------------------------------------7----------
E|------------------------------------------------------------------------------------------------

Stave 5:

E|-
B|-
G|-
D|-
A|-
E|-

http://www.guitartabcreator.com
Guitar Tab Creator is intended to store guitar tab created through the tool. It currently does not support in-line text editing. Any text you place in here will be lost. If you need to comment on your tab, please use the "Tab Notes" section located below.