Sound will begin in 5 seconds

Marcos Barrientos Amanece

01234567891011121314151617181920212223
E
B
G
D
A
E
B
0 1 2 3 4 5 6 7 8 9 10 11 12 13 14 15 16 17 18 19 20 21 22 23
Song Science #1: How Pros Use 6 Chords to Write Hit Songs
(/) Slide Up  (\) Slide Down  (h) Hammer On  (p) Pull Off  (b) Bend (r) Release (v) Vibrato

Stave 1:

G|--------------------------
D|--------------------------
A|--7--7--7-----------7-----
E|-----------0--0--0-----0--
B|--------------------------

Stave 2:

G|--------------------
D|--------------------
A|--3--5--------2--5--
E|--------3--5--------
B|--------------------

Stave 3:

G|-----------------------------
D|-----------------5-----------
A|--7--7--3--3--------------2--
E|--------------3-----3--5-----
B|-----------------------------

Stave 4:

G|--------------------------------------
D|-----------5-----------5--------------
A|--7--5--7-----7--5--------------2--2--
E|--------------------3-----3--5--------
B|--------------------------------------

Stave 5:

G|---------------------------
D|-----------5--5------------
A|-----2--3--------3--5--17--
E|--3------------------------
B|---------------------------

Stave 6:

G|-----------------------
D|-----------------------
A|--7-----------------2--
E|-----7--0--3--3--5-----
B|-----------------------

Stave 7:

G|--------------------------
D|--------------------------
A|--3--5--7-----2--2-----2--
E|-----------3--------3-----
B|--------------------------

Stave 8:

G|-----------------
D|-----------------
A|--3--5--7-----2--
E|-----------3-----
B|-----------------

Stave 9:

G|-----------------------------4-----
D|-----------------5-----------------
A|--7--7--3--3--------------2-----2--
E|--------------3-----3--5-----------
B|-----------------------------------

Stave 10:

G|-----------------------------------4-----
D|-----------5-----------5-----------------
A|--7--5--7-----7--5--------------2-----2--
E|--------------------3-----3--5-----------
B|-----------------------------------------

Stave 11:

G|---------------------------------------------------
D|-----------5--5------------------------------------
A|-----2--3--------3--5--17--7--------7--7--------2--
E|--3---------------------------0--0--------0--3-----
B|---------------------------------------------------

Stave 12:

G|--------------------------
D|--------------------------
A|--3--5--7-----2--2-----2--
E|-----------3--------3-----
B|--------------------------

Stave 13:

G|---------------------
D|---------------------
A|--3--5--7--10--------
E|---------------7--8--
B|---------------------

Stave 14:

G|-----------------------------
D|------9------12--14--12--10--
A|--10-----10------------------
E|-----------------------------
B|-----------------------------

Stave 15:

G|-----------------
D|-----------------
A|--3--5--3--2--7--
E|-----------------
B|-----------------

Stave 16:

G|--------------------------
D|--5--5-----5--------------
A|--------------------2--3--
E|--------3-----3--5--------
B|--------------------------

http://www.guitartabcreator.com
Guitar Tab Creator is intended to store guitar tab created through the tool. It currently does not support in-line text editing. Any text you place in here will be lost. If you need to comment on your tab, please use the "Tab Notes" section located below.