Sound will begin in 5 seconds

Marco Barrientos De Gloria En Gloria

01234567891011121314151617181920212223
E
B
G
D
A
E
B
0 1 2 3 4 5 6 7 8 9 10 11 12 13 14 15 16 17 18 19 20 21 22 23
Top Courses in Music 160x600
(/) Slide Up  (\) Slide Down  (h) Hammer On  (p) Pull Off  (b) Bend (r) Release (v) Vibrato

Stave 1:

G|------------------------------------
D|------------------------------------
A|--6--6--8--8--10--10--10--10--5--5--
E|------------------------------------
B|------------------------------------

Stave 2:

G|----------------------------------------
D|------------------------------8---------
A|--6--6--8--8--10--10--10--10-----10--8--
E|----------------------------------------
B|----------------------------------------

Stave 3:

G|------------------------------------
D|------------------------------8--8--
A|--6--6--8--8--10--10--10--10--------
E|------------------------------------
B|------------------------------------

Stave 4:

G|-----8--------3--------3--------3--2--
D|--------------------------5-----------
A|--6-----6--1-----1--------------------
E|--------------------3--------1--------
B|--------------------------------------

Stave 5:

G|--------8--------8--
D|--------------------
A|--6--6-----0--6-----
E|--------------------
B|--------------------

Stave 6:

G|--------3--------3--
D|--------------------
A|--1--1-----0--1-----
E|--------------------
B|--------------------

Stave 7:

G|--------5v--3-----
D|---------------5--
A|------------------
E|--3--3------------
B|------------------

Stave 8:

G|--------3v--3--2--
D|------------------
A|------------------
E|--1--1------------
B|------------------

Stave 9:

G|-------------------------------------------
D|-----------8-----8--8----------------------
A|--6--8-----------------------10--8--10--8--
E|--------6-----6--------6--3----------------
B|-------------------------------------------

Stave 10:

G|-------------------------
D|-------------------------
A|--6--8-----13-----10--8--
E|--------6------3---------
B|-------------------------

Stave 11:

G|-----3--2--3--2--3--
D|--------------------
A|--------------------
E|--1-----------------
B|--------------------

Stave 12:

G|-----------3--3----------------10--
D|--0--3--5--------5--0--10--12------
A|-----------------------------------
E|-----------------------------------
B|-----------------------------------

Stave 13:

G|--------------
D|--------------
A|--6-----------
E|-----6--3--1--
B|--------------

Stave 14:

G|------------------------------------
D|------------------------------------
A|--6--6--8--8--10--10--10--10--5--5--
E|------------------------------------
B|------------------------------------

http://www.guitartabcreator.com
Guitar Tab Creator is intended to store guitar tab created through the tool. It currently does not support in-line text editing. Any text you place in here will be lost. If you need to comment on your tab, please use the "Tab Notes" section located below.