Sound will begin in 5 seconds

Aliento Me Liberto

01234567891011121314151617181920212223
E
B
G
D
A
E
B
0 1 2 3 4 5 6 7 8 9 10 11 12 13 14 15 16 17 18 19 20 21 22 23
Song Science #1: How Pros Use 6 Chords to Write Hit Songs
(/) Slide Up  (\) Slide Down  (h) Hammer On  (p) Pull Off  (b) Bend (r) Release (v) Vibrato

Stave 1:

G|--------------------------------
D|--------------------------------
A|--------------3--3--3--3--3--3--
E|--1--1--1--1--------------------
B|--------------------------------

Stave 2:

G|-----------------------------------
D|-----------------------------7-----
A|-----------------------5--7--------
E|--3--3--3--3--5--5--5-----------5--
B|-----------------------------------

Stave 3:

G|----------------------------------
D|----------------------------------
A|----------------------------------
E|--1-----3--5--12--13--20--15--17--
B|-----1----------------------------

Stave 4:

G|--------------------------------------------
D|--------------------------------------------
A|--------------------------------------------
E|--1--1--1--0--0--5--5--3--3--3--3--3--0--0--
B|--------------------------------------------

Stave 5:

G|--------------
D|--5-----5-----
A|--------------
E|-----3-----3--
B|--------------

Stave 6:

G|--------------------------------------
D|--------------------------------------
A|--------------------------------3--5--
E|--1--1--0--0--3--3--3--3--3--5--------
B|--------------------------------------

Stave 7:

G|---------------------------------
D|---------------------------------
A|---------------------------3--5--
E|--1--12--3--3--3--3--5--6--------
B|---------------------------------

Stave 8:

G|-----------------------------------------
D|-----------------------------------------
A|-----------------10--10--10--7--7--5--3--
E|--1--1--0--0--3--------------------------
B|-----------------------------------------

Stave 9:

G|--------------------------
D|--------------------------
A|--------------10--10--12--
E|--1--0--3--3--------------
B|--------------------------

Stave 10:

G|-----------------------------------
D|-----------------------------------
A|--------3--3--3--3--3--3-----------
E|--1--1--------------------3--3--3--
B|-----------------------------------

Stave 11:

G|-----------------------------------
D|-----------------------5-----------
A|--------------------7-----7--5--3--
E|--0--3--5--5--5--5-----------------
B|-----------------------------------

Stave 12:

G|-----------------------------------
D|-----------------------------------
A|-----------------3--3--3--3--3-----
E|--1--1--1--1--1-----------------0--
B|-----------------------------------

Stave 13:

G|--------------------------------------------
D|--------------------------------5-----------
A|-----------------------------7-----7--5--3--
E|--3--3--3--3--3--5--5--5--5-----------------
B|--------------------------------------------

Stave 14:

G|--------------------------------------
D|--------------------------------------
A|--8--8--3--3--3--3--3--3--3-----------
E|-----------------------------3--3--3--
B|--------------------------------------

Stave 15:

G|-----------------------------------------
D|-----------------------------5-----------
A|----------12--12--12--12--7-----7--5--3--
E|--13--12---------------------------------
B|-----------------------------------------

Stave 16:

G|-----------------------------------------
D|-----------------------------------------
A|-----------------3--3--3--7--5--3--------
E|--1--1--1--1--1--------------------5--3--
B|-----------------------------------------

Stave 17:

G|-----------------------------------------------
D|-----------------------------------7--5--------
A|-----------------------------5--7--------7-----
E|--3--3--3--3--0--3--5--5--5-----------------5--
B|-----------------------------------------------

Stave 18:

G|--------------------------------------
D|--------------------------------------
A|-----------------------------------3--
E|--1--1--0--0--3--3--3--3--3--3--5-----
B|--------------------------------------

Stave 19:

G|------------------------------------------
D|------------------------------------------
A|---------------------------------------3--
E|--1--1--12--8--3--3--3--3--3--3--3--5-----
B|------------------------------------------

Stave 20:

G|------------------------------------
D|------------------------------------
A|--8--10--7--3--------------------3--
E|---------------3--3--3--3--3--5-----
B|------------------------------------

Stave 21:

G|---------------------
D|---------------------
A|---------------------
E|--1--12--3--3--3--3--
B|---------------------

Stave 22:

G|--------------------------------------------
D|--------------------------------------------
A|--------------------------------------------
E|--1--1--1--1--1--5--5--3--3--3--3--3--0--0--
B|--------------------------------------------

Stave 23:

G|--------------------------------
D|--------------------------------
A|--------------------------------
E|--1--1--1--0--0--5--5--3--3--3--
B|--------------------------------

Stave 24:

G|--------------7--------------------
D|--------7--9-----9--7--9--7--------
A|--7--9-----------------------9--7--
E|-----------------------------------
B|-----------------------------------

Stave 25:

G|-----------------------------
D|-----------------------------
A|--------8--7--5--3--1--------
E|--1--1-----------------5--3--
B|-----------------------------

Stave 26:

G|--------------------------------------------------------
D|--------------------------------------------------------
A|--15--20--22--19--15--10--10--10--10--10--12--10--7--3--
E|--------------------------------------------------------
B|--------------------------------------------------------

Stave 27:

G|--------------------------
D|--------------------------
A|--------------------------
E|--1--1--0--0--3--3--3--3--
B|--------------------------

Stave 28:

G|-----------------------------------
D|-----------------------------------
A|-----------3--------------------3--
E|--1--1--0-----3--3--3--3--3--5-----
B|-----------------------------------

Stave 29:

G|-----------------------------
D|-----------------------------
A|-----------------------------
E|--1--1--0--0--3--3--5--3--3--
B|-----------------------------

Stave 30:

G|-----------------------------
D|-----------------------------
A|--------------------------3--
E|--1--0--3--3--3--3--3--5-----
B|-----------------------------

Stave 31:

G|-----------------------------------------
D|-----------------------------------------
A|--8--8--8--8--3--3--3--3--3--3-----------
E|--------------------------------3--3--3--
B|-----------------------------------------

Stave 32:

G|-------------------------------
D|-------------------------------
A|-----------------7--10--7--12--
E|--0--3--5--5--5----------------
B|-------------------------------

Stave 33:

G|----------------------------------
D|----------------------------------
A|--8--12--10--8--3--3--3--3--0--3--
E|----------------------------------
B|----------------------------------

Stave 34:

G|-----------------------------------------
D|-----------------------------------------
A|-----------------------------------------
E|--0--1--3--3--3--3--0--5--5--5--5--5--5--
B|-----------------------------------------

http://www.guitartabcreator.com
Guitar Tab Creator is intended to store guitar tab created through the tool. It currently does not support in-line text editing. Any text you place in here will be lost. If you need to comment on your tab, please use the "Tab Notes" section located below.