Sound will begin in 5 seconds

Stare at the Sun - Charlie Rebel Bass Tab

Chords
01234567891011121314151617181920212223
E
B
G
D
A
E
B
0 1 2 3 4 5 6 7 8 9 10 11 12 13 14 15 16 17 18 19 20 21 22 23
Song Science #1: How Pros Use 6 Chords to Write Hit Songs
(/) Slide Up  (\) Slide Down  (h) Hammer On  (p) Pull Off  (b) Bend (r) Release (v) Vibrato

Stave 1:

G|-----------------6---9-------------------6---9-----------------------------------7-----7-------
D|-7-----7-----7-----------7-----7-------7-------7-----------------7-6---------------6-----6---7-
A|-0-0-0-0-0-0-0-0---0---0-0-0-0-0-0-0-0-0---0---0-7-------------7-----7---------------7-----7---
E|-------------------------------------------------0-0-0-0-0-0-0-0-------0-0-0-0-0---------------

Stave 2:

G|-----------------------------------------------------------------------------------------6-6-6-6---
D|-----------------------------------------6-----6/9---9-9---------------------------------7-7-7-7-7-
A|---0-0-0-0-0-0-0-0-0-0-0-0-0-0-0-0-----------------------7-2-2-2-2-4-5-5-5-5-5-0-0-0-0-0-----------
E|-----------------------------------0-0-0---0-0-----0-----------------------------------------------

Stave 3:

G|-----------------------------------------------------------------------------------------------
D|---------------------------------------6-----6/9-----------------------------------------------
A|-0-0-0-0-0-0-0-0-0-0-0-0-0-0-0-0-----------------7-2-2-2-2-4-5-0-0-0-0-0-0-0-0-0-0-0-0-0-0-0-0-
E|---------------------------------0-0-0---0-0---------------------------------------------------

Stave 4:

G|---14-14---------------14-14---------------14-----------------------------------------------------
D|--------------------------------------------------------------------------------------------------
A|-0-------0-0-0-0-0-0-0-------0-0-0-0-0-0-0----2-2-2-2-2-2-2-5-5-5-5-5-5-5-0-0-0-0-0-0-0-0-0-0-0-0-
E|--------------------------------------------------------------------------------------------------

Stave 5:

G|------------------------------------------------------------------------------------------------
D|---------14-14-12-11-----------14-14-12-11-11h12----------------------------14-14-12-11---------
A|-0-0-0-0-------------0-0-0-0-0-------------------14-14-14-5-5-5-5-5-0-0-0-0-------------0-0-0-0-
E|------------------------------------------------------------------------------------------------

Stave 6:

G|------------------------------------------------
D|-14-14-12-11-11p12------------------------------
A|-------------------14-14-14-5-5-5-5-5-0-0-0-0-0-
E|------------------------------------------------

Stave 7:

G|-----------6---9-----------6---9-------------------------------------7-----7---------
D|-------7-----------7-----7-------7-------------------7-6---------------6-----6---7---
A|-0-0-0-0-0---0---0-0-0-0-0---0---0-7---------------7-----7---------------7-----7---7-
E|-----------------------------------7-0-0-0-0-0-0-0-0-------0-0-0-0-0-----------------

Stave 8:

G|---------------------------------------------------------------------6-6-6-6---
D|-------------------------------------6-----6/9-----------------------7-7-7-7-7-
A|-0-0-0-0-0-0-0-0-0-0-0-0-0-0-0-----------------7-2-2-2-2-4-5-0-0-0-0---------0-
E|-------------------------------0-0-0---0-0-------------------------------------

Stave 9:

G|-----------------------------------------------------------------------------------------------------
D|---------------------------------------6-----6/9-----------------------------------------------------
A|-0-0-0-0-0-0-0-0-0-0-0-0-0-0-0-0-----------------7-2-2-2-2-4-5-5-5-5-5-5-5-5-0-0-0-0-0-0-0-0-0-0-0-0-
E|---------------------------------0-0-0---0-0---------------------------------------------------------

Stave 10:

G|-----------------------------14-14-----------------------14-14-----------------------
D|-------------------------------------------------------------------------------------
A|-0-0-0-0-0-0-0-0-0-0-0-0-0-0-------0-0-0-0-0-0-0-0-0-0-0-------0-0-0-0-0-0-0-0-0-0-0-
E|-------------------------------------------------------------------------------------

Stave 11:

G|-------------------------------------------------------------
D|-------------------------------------------------------------
A|-2-2-2-2-2-2-2-2-4-5-5-5-5-5-0-0-0-0-0-0-0-0-0-0-0-0-0-0-0-0-
E|-------------------------------------------------------------

Stave 12:

G|-------------------------------------------------------9-
D|-----------------------------------------------------7---
A|-------------2-2-2-2-2-2---------------------5-5p4-0-----
E|-0-0-0-0-0-0-------------2-2-2-2-2-2-5-5-5-5-------------

Stave 13:

G|--------------------------------------------------
D|--------------------------------------------------
A|-0r0----0----0----0----0----2----2----5----5----0-
E|--------------------------------------------------

Stave 14:

G|-----------------------------
D|-----------------------------
A|-0-0-0-0-0-0-0-0-2-2-2-2-5-5-
E|-----------------------------

Stave 15:

G|--------------------------------------------------------------------------------------------
D|---------------14-14-12-11-------------14-14-12-11-11h12----------0-0-0-0-0-----------------
A|-0-0-0-0-0-0-0-------------0-0-0-0-0-0-------------------14-14-14---------------------------
E|----------------------------------------------------------------------------5-5-5-5-5-5-5-5-

http://www.guitartabcreator.com
Guitar Tab Creator is intended to store guitar tab created through the tool. It currently does not support in-line text editing. Any text you place in here will be lost. If you need to comment on your tab, please use the "Tab Notes" section located below.