Sound will begin in 5 seconds

It's what we do

Chords
01234567891011121314151617181920212223
E
B
G
D
A
E
B
0 1 2 3 4 5 6 7 8 9 10 11 12 13 14 15 16 17 18 19 20 21 22 23
Song Science #1: How Pros Use 6 Chords to Write Hit Songs
(/) Slide Up  (\) Slide Down  (h) Hammer On  (p) Pull Off  (b) Bend (r) Release (v) Vibrato

Stave 1:

E|------------------|-------------------|----------------------------|-10----10----|-
B|-9b10r9----8b9----|-------------------|----------------------------|-12p10-10b12-|-
G|---------------9v-|--------5-7-7b9----|----------------------------|-------------|-
D|------------------|----3/5------------|----------------------------|-------------|-
A|------------------|-------------------|----9b10-9v-5/7-5-----------|-------------|-
E|------------------|-------------------|------------------7-5-3b4-0-|-------------|-

Stave 2:

E|-----------------------|----------|------------12-14-14b15-|-v-v-15r14----12-------12v------------------
B|-----------------------|----------|-15v-v-v-12-------------|-----------15----15b16----------------------
G|-----------------------|----------|------------------------|------------------------------2b3r2p0h2v----
D|---5----7-7b8-7-5---5v-|----------|------------------------|--------------------------------------------
A|-7----------------7----|----------|------------------------|--------------------------------------------
E|-----------------------|----------|------------------------|--------------------------------------------

Stave 3:

E|-------|----------------------------------------------------------------
B|-------|----------------------------------------------------------------
G|-------|-------------------------------12-14b16-12-14----------12-14----
D|-2p0-2-|-2/4v----5v-h7-7/9----12b14-14----------------14-14----------14-
A|-------|----------------------------------------------------------------
E|-------|----------------------------------------------------------------

http://www.guitartabcreator.com
Guitar Tab Creator is intended to store guitar tab created through the tool. It currently does not support in-line text editing. Any text you place in here will be lost. If you need to comment on your tab, please use the "Tab Notes" section located below.