Sound will begin in 5 seconds

CYHTV GTAR

Chords
01234567891011121314151617181920212223
E
B
G
D
A
E
B
0 1 2 3 4 5 6 7 8 9 10 11 12 13 14 15 16 17 18 19 20 21 22 23
Song Science #1: How Pros Use 6 Chords to Write Hit Songs
(/) Slide Up  (\) Slide Down  (h) Hammer On  (p) Pull Off  (b) Bend (r) Release (v) Vibrato

Stave 1:

E|--0-----------------------------------0------------------------------------
B|--0-----------------------------------0------------------------------------
G|--0--14b11----------------------------0--14b12--11-------------------------
D|--2---------12--12--14b12-------------2-------------12--12--14b12----------
A|--2------------------------14--12-----2----------------------------14--12--
E|--0-----------------------------------0------------------------------------

Stave 2:

E|--2--2---------------12--9----------------9--10--9-------------------------
B|--0--0-----------10---------10--------10-----------------------14--12------
G|--2--0-----9h11-----------------9h11-----------------------14----------11--
D|--0--2----------------------------------------------11h12------------------
A|--0--0---------------------------------------------------------------------
E|--2--2---------------------------------------------------------------------

Stave 3:

E|-----------------------------0--------------------------------2--
B|-----------------------------0--10--12--10--------------------0--
G|--------------11--13--14-----0--------------9h11--9--7--------2--
D|--11--12--14-----------------2--------------------------9-----0--
A|-----------------------------2--------------------------------0--
E|-----------------------------0--------------------------------2--

Stave 4:

E|--------------------12--10--9--------------------------
B|--10--9------------------------12--10------------------
G|---------9--11----------------------------4b4-----9b9--
D|----------------11-------------------------------------
A|-------------------------------------------------------
E|-------------------------------------------------------

Stave 5:

E|---------9-----------------12------
B|------------10-----------------14--
G|-----11----------------13----------
D|-------------------14--------------
A|-----------------------------------
E|-----------------------------------

http://www.guitartabcreator.com
Guitar Tab Creator is intended to store guitar tab created through the tool. It currently does not support in-line text editing. Any text you place in here will be lost. If you need to comment on your tab, please use the "Tab Notes" section located below.