Sound will begin in 5 seconds

06.12.13

01234567891011121314151617181920212223
E
B
G
D
A
E
B
0 1 2 3 4 5 6 7 8 9 10 11 12 13 14 15 16 17 18 19 20 21 22 23
Top Courses in Music 160x600
(/) Slide Up  (\) Slide Down  (h) Hammer On  (p) Pull Off  (b) Bend (r) Release (v) Vibrato

Stave 1:

F|--------------|--------------|--------------|--------------
C|--------------|--------------|--------------|--------------
G|--------------|--------------|--------------|--------------
C|--0--0--0--0--|--8--8--8--8--|--0--0--0--0--|--8--8--8--8--

Stave 2:

F|--------------|--------------|------------------|--------------
C|--------------|--------------|------------------|--------------
G|--------------|--------------|------------------|--------------
C|--10--10--10--|--8--8--8--8--|--10--10--10--10--|--7--7--7--7--

Stave 3:

F|-----|-----|-----|------|-----|-----|-----|------
C|-----|-----|-----|------|-----|-----|-----|------
G|-----|-----|-----|------|-----|-----|-----|------
C|--8--|--0--|--8--|--10--|--8--|--0--|--8--|--10--

Stave 4:

F|--------------|--------------|--------------|--------------|--
C|--------------|--------------|--------------|--------------|--
G|--------------|--------------|--------------|--------------|--
C|--0--0--0-----|--0--0--0-----|--0--0--0-----|--0--0--0-----|--

Stave 5:

F|--------------|--------------|--------------|----------------------
C|--------------|--------------|--------------|----------------------
G|--------------|--------------|--------------|----------------------
C|--0--0--0-----|--0--0--0-----|--0--0--0-----|--0--0--0--8--10--10--

Stave 6:

F|-----------------|--------------|--------------|------------------
C|-----------------|--------------|--------------|------------------
G|-----------------|--------------|--------------|------------------
C|--8--8--8--8--8--|--0--0--0--0--|--8--8--8--8--|--10--10--10--10--

Stave 7:

F|-----
C|-----
G|-----
C|--0--

Stave 8:

F|-----|-----|-----|-----
C|-----|-----|-----|-----
G|-----|-----|-----|-----
C|--0--|--5--|--8--|--7--

Stave 9:

F|--------------------------------|--------------------------------|--
C|--------------------------------|--------------------------------|--
G|--------------------------------|--------------------------------|--
C|--0-----0--0--0-----0-----0--0--|--5-----5--5--5-----5-----5--5--|--

Stave 10:

F|--------------------------------|--------------------------------|--
C|--------------------------------|--------------------------------|--
G|--------------------------------|--------------------------------|--
C|--8-----8--8--8-----8-----8--8--|--7-----7--7--7-----7-----7--7--|--

Stave 11:

F|--------------------------------|--------------------------------
C|--------------------------------|--------------------------------
G|--------------------------------|--------------------------------
C|--0-----0--0--0-----0-----0--0--|--0-----0--0--0-----0-----0--0--

http://www.guitartabcreator.com
Guitar Tab Creator is intended to store guitar tab created through the tool. It currently does not support in-line text editing. Any text you place in here will be lost. If you need to comment on your tab, please use the "Tab Notes" section located below.