Sound will begin in 5 seconds

wes d natural solo

01234567891011121314151617181920212223
E
B
G
D
A
E
B
0 1 2 3 4 5 6 7 8 9 10 11 12 13 14 15 16 17 18 19 20 21 22 23
Song Science #1: How Pros Use 6 Chords to Write Hit Songs
(/) Slide Up  (\) Slide Down  (h) Hammer On  (p) Pull Off  (b) Bend (r) Release (v) Vibrato

Stave 1:

E|-------6--6----------6--6-------------------------6----------6--8--6--------------------
B|--7/8-----------7/8----------------------------8--------7/8-----------6-----------------
G|-----------------------------------------5--8----------------------------8-----6--8--8--
D|------------------------------------5/6-------------------------------------8-----------
A|------------------------------8--8------------------------------------------------------
E|----------------------------------------------------------------------------------------

Stave 2:

E|------------------------------------------------------------------------------------------------
B|-----6------------------------------------------------6-----------------6-----6-----------------
G|--6-----6-----------6/7--6/7--------7--------------7-----7-----------7-----7-----7--------7-----
D|-----------8------------------8--------6-----5--8--------------5--8-----------------8--5-----8--
A|------------------------------------------------------------------------------------------------
E|------------------------------------------------------------------------------------------------

Stave 3:

E|-----------------5--6--8--8/10----------------8h9p8p6-------------------------------------------
B|-----------6--8-----------------11---------------------9--6-------------------------------6-----
G|--5--7--8---------------------------10--8--------------------8/9--8--6-----5-----------7-----9--
D|------------------------------------------------------------------------8-----8--5--8-----------
A|------------------------------------------------------------------------------------------------
E|------------------------------------------------------------------------------------------------

Stave 4:

E|--------------10--13--12-----------------15--15--13-----11--10--8----------------------------------
B|-------8--11---------------------13--16----------------------------11--10--9------8----------------
G|--7/8------------------------13-----------------------------------------------10-----8--10------8--
D|--------------------------------------------------------------------------------------------10-----
A|---------------------------------------------------------------------------------------------------
E|---------------------------------------------------------------------------------------------------

Stave 5:

E|-----------------------------------------------------------6----------------6----------------------
B|------------------------------------------------------7/8-----9----------------7/8--7--------6-----
G|------7-----------------------------------------5--8-------------6--8--6/7-------------7--------8--
D|--10-----10--8--7--6--------5-----------5h6--8--------------------------------------------8--------
A|-------------------------6-----8-----8-------------------------------------------------------------
E|----------------------8----------------------------------------------------------------------------

Stave 6:

E|----------------------------------------------------------------------------------
B|----------6----------------------6-------------------6-------------------6--------
G|-----7/8-----8--6-----------7/8-----8--6--------7/8-----8--7--------7/8-----8--7--
D|--8----------------8-----8-------------------8-------------------8----------------
A|----------------------------------------------------------------------------------
E|----------------------------------------------------------------------------------

Stave 7:

E|---------------------------------------------------------------------------
B|--------------------------10/11--9-----------------------------------------
G|-------------------7--10------------10--8--6--------6/7-----------------5--
D|---------10--9--8-----------------------------8--5-------8-----------------
A|--8--10-----------------------------------------------------8--7--5--6-----
E|---------------------------------------------------------------------------

Stave 8:

E|------------------------------------------10--9--8------------------------------------------------------
B|-----6-----6--------------------6--7--10------------10--8--6--------------------------------------------
G|--7-----7-----7--------5--7--8-----------------------------------------8p7-----6--5-----6--7--8--9--10--
D|-----------------8--5--------------------------------------------7--8-------8--------8------------------
A|--------------------------------------------------------------------------------------------------------
E|--------------------------------------------------------------------------------------------------------

Stave 9:

E|--------------
B|--------------
G|--7-----------
D|-----8-----5--
A|--------8-----
E|--------------

http://www.guitartabcreator.com
Guitar Tab Creator is intended to store guitar tab created through the tool. It currently does not support in-line text editing. Any text you place in here will be lost. If you need to comment on your tab, please use the "Tab Notes" section located below.