Sound will begin in 5 seconds

the other one 11/14/73 crazy part

01234567891011121314151617181920212223
E
B
G
D
A
E
B
0 1 2 3 4 5 6 7 8 9 10 11 12 13 14 15 16 17 18 19 20 21 22 23
Top Courses in Music 160x600
(/) Slide Up  (\) Slide Down  (h) Hammer On  (p) Pull Off  (b) Bend (r) Release (v) Vibrato

Stave 1:

E|--12---------------------------------------------------------------------------------------------
B|------14--15--12--14--12-------------------------------------------------------------------------
G|--------------------------14--12--14--11h12------11----------------------------------------------
D|---------------------------------------------14------12--14--11--12--14--12--11------11----------
A|---------------------------------------------------------------------------------14------12--14--
E|-------------------------------------------------------------------------------------------------

Stave 2:

E|-----------------------------------------------------------------------------------------------------
B|-----------------------------------------------------------------------------------------------------
G|-----------------------------------------------------------------9----------9------------------------
D|----------9-------------------------------------------9--11--12-----11--12-----12--11--9--11--9------
A|--10--12-----12--10--9--10------9----------9--10--12---------------------------------------------12--
E|----------------------------12-----10--12------------------------------------------------------------

Stave 3:

E|-------------------------------------------------------------------12------9--10--9----------
B|-----------------------------------10--12------10----------10----------12------------12--10--
G|------------------------9--11--12----------12------11--12------12----------------------------
D|--9----------9--11--12-----------------------------------------------------------------------
A|-----10--12----------------------------------------------------------------------------------
E|---------------------------------------------------------------------------------------------

Stave 4:

E|--9---------------------------------------------------------------------------------------------------
B|-----12--10-------------12---------------------------------------------------------10-----------------
G|-------------12--12---------11--11-----12--11--9--11--9------9----------9--11--12------12--11--9--11--
D|---------------------------------------------------------12-----11--12--------------------------------
A|------------------------------------------------------------------------------------------------------
E|------------------------------------------------------------------------------------------------------

Stave 5:

E|------------------------------------------------------------------------------------------------------
B|--------------------------------------------------------------------------------------12------10------
G|------9----------9----------------------------------------------9----------9--11--12------12------12--
D|--12-----11--12-----12--11--9--11--9------9----------9--11--12-----11--12-----------------------------
A|--------------------------------------12-----10--12---------------------------------------------------
E|------------------------------------------------------------------------------------------------------

Stave 6:

E|----------9------9h10p9--------------9--------------12------9h10p9------9-------------7---------------
B|--10--12-----12----------12--10--12-----12--10--12------12----------12-----12--10--8--------10--7--8--
G|-----------------------------------------------------------------------------------------9------------
D|------------------------------------------------------------------------------------------------------
A|------------------------------------------------------------------------------------------------------
E|------------------------------------------------------------------------------------------------------

Stave 7:

E|-------------------------------------------------------------------------------------------------
B|-----8--7--10------------------------------------------------------------------------------------
G|--9------------12--11--9--11---------9---------9--12--11------11--9------9---------9-------------
D|---------------------------------12-----11h12-------------12---------12-----11h12-----12--11--9--
A|-------------------------------------------------------------------------------------------------
E|-------------------------------------------------------------------------------------------------

Stave 8:

E|--------------------------------------------------
B|--------------------------------------------------
G|--------------------------------------------------
D|--11---------11--9------9----------9--------------
A|------12/14---------12-----10--12-----10----------
E|------------------------------------------12--12--

http://www.guitartabcreator.com
Guitar Tab Creator is intended to store guitar tab created through the tool. It currently does not support in-line text editing. Any text you place in here will be lost. If you need to comment on your tab, please use the "Tab Notes" section located below.