Sound will begin in 5 seconds

maiden voyage master class ideas

01234567891011121314151617181920212223
E
B
G
D
A
E
B
0 1 2 3 4 5 6 7 8 9 10 11 12 13 14 15 16 17 18 19 20 21 22 23
Top Courses in Music 160x600
(/) Slide Up  (\) Slide Down  (h) Hammer On  (p) Pull Off  (b) Bend (r) Release (v) Vibrato

Stave 1:

E|--7/10--7--------5-----------------------------------------------------3--6--10--10-----8--8-----
B|-----------8--5-----7--------------------------------------------3--4----------------8--------6--
G|-----------------------7-----5--9p7p5--4----------------------5----------------------------------
D|--------------------------7---------------5--7-------------5-------------------------------------
A|------------------------------------------------6/7----------------------------------------------
E|-------------------------------------------------------------------------------------------------

Stave 2:

E|--6--6-----4/5--4/5----------------------------------------------------------------------------------
B|--------4------------3----------------------------------------------------------------------5--8--7--
G|------------------------------5p4------------------------------4-----2-------------4--5--7-----------
D|-----------------------------------7--5--4---------------2--5-----5--------4--5h7--------------------
A|--------------------------------------------7-----3p2h3----------------------------------------------
E|-----------------------------------------------------------------------------------------------------

Stave 3:

E|-----------3--6--10--6--8------------------------------------------------------
B|--3--4--6------------------11p8--10-----6p5h6--4p3h4---------------------------
G|------------------------------------------------------6--4h5-------------------
D|--------------------------------------------------------------8--6--7----------
A|-----------------------------------------------------------------------9--7h8--
E|-------------------------------------------------------------------------------

Stave 4:

E|-------------8--8--6--------------11/13--9--8--
B|-------6--9-----------6------------------------
G|--5/6--------------------6--5------------------
D|-----------------------------------------------
A|-----------------------------------------------
E|-----------------------------------------------

http://www.guitartabcreator.com
Guitar Tab Creator is intended to store guitar tab created through the tool. It currently does not support in-line text editing. Any text you place in here will be lost. If you need to comment on your tab, please use the "Tab Notes" section located below.