Sound will begin in 5 seconds

D natural blues wes transcription second chorus

01234567891011121314151617181920212223
E
B
G
D
A
E
B
0 1 2 3 4 5 6 7 8 9 10 11 12 13 14 15 16 17 18 19 20 21 22 23
Top Courses in Music 160x600
(/) Slide Up  (\) Slide Down  (h) Hammer On  (p) Pull Off  (b) Bend (r) Release (v) Vibrato

Stave 1:

E|-------5---------------------------------------------7--10--7------------6/7-----5-----------
B|--5/7-----5/6----------------------------------5--8---------------------------8-----6--------
G|---------------7--5-------------------------5----------------------9--9----------------7--7--
D|---------------------7--5-----3h4--------7---------------------10----------------------------
A|---------------------------5-----------------------------------------------------------------
E|---------------------------------------------------------------------------------------------

Stave 2:

E|--------------------------7--8--7--5--4--7--5--------------------------------------------------------
B|--------------------5--8-----------------------5--------------------------6--7-----6-----------------
G|-----4--7--6--5--7--------------------------------5--7-----------------6--------7-----8--6--5--------
D|--7--------------------------------------------------------------6--8--------------------------6--4--
A|--------------------------------------------------------9--8--9--------------------------------------
E|-----------------------------------------------------------------------------------------------------

Stave 3:

E|--------------------------5--9--12--10--8--10--7-----7------------------------------------------------
B|--------------------5--6--------------------------8-----10------10--8---------------------------------
G|-----------4--6--7------------------------------------------10---------10--7--------------------------
D|--4--5--7---------------------------------------------------------------------10--7-------------------
A|-------------------------------------------------------------------------------------10------8h9------
E|-----------------------------------------------------------------------------------------10-------10--

Stave 4:

E|----------------7--5---------------------------------------------------------------------
B|-----------6/7--------------6/8--6/7--------6/7--3-------------------6/7--3--------------
G|--------7----------------5------------7-------------4------------------------4-----------
D|----------------------7--------------------------------5--2--3/4--2-------------5--2--3--
A|-----------------------------------------------------------------------------------------
E|--5--------------------------------------------------------------------------------------

Stave 5:

E|---------------------------------------------
B|--6/7----------------------------------------
G|-------7-----5--7--5-------------------------
D|----------7-----------7--5-----3h4--3--------
A|----------------------------5----------5-----
E|------------------------------------------3--

http://www.guitartabcreator.com
Guitar Tab Creator is intended to store guitar tab created through the tool. It currently does not support in-line text editing. Any text you place in here will be lost. If you need to comment on your tab, please use the "Tab Notes" section located below.