Sound will begin in 5 seconds

D natural blues wes transcription

01234567891011121314151617181920212223
E
B
G
D
A
E
B
0 1 2 3 4 5 6 7 8 9 10 11 12 13 14 15 16 17 18 19 20 21 22 23
Song Science #1: How Pros Use 6 Chords to Write Hit Songs
(/) Slide Up  (\) Slide Down  (h) Hammer On  (p) Pull Off  (b) Bend (r) Release (v) Vibrato

Stave 1:

E|----------------------------------------------------------------7------------------------------------
B|--------------------5----------------------------------------7-----10-----8--7-----------------------
G|--7--5--7-----5--7-----7--5--7--5--3/4--------------------7------------7--------9--5-----------------
D|----------------------------------------5--2--3--------7------------------------------7-----6-----5--
A|-----------------------------------------------------------------------------------------7-----7-----
E|-----------------------------------------------------------------------------------------------------

Stave 2:

E|-------------------------8--10--6/7---------------------------------------------------------------
B|--------------------7/8--------------8------------5p4p3-------------------------------------------
G|--------------7--8----------------------7--10------------4----------------------------------3--4--
D|-------7--10------------------------------------------------5--4--3-----3-------2--3--5--6--------
A|--8h9----------------------------------------------------------------5-----4h5--------------------
E|--------------------------------------------------------------------------------------------------

Stave 3:

E|-------------------------------------------------------------------------------------6--------------
B|--------4--5---------------------------7--5-----9--5-------------------------4--7/8-----8--4--------
G|--6--7--------6--6/7-------------4--7-----------------6-------------------5-------------------5-----
D|----------------------7-----4h5--------------------------7--6--4-----3/4-------------------------6--
A|----------------------------------------------------------------------------------------------------
E|----------------------------------------------------------------------------------------------------

Stave 4:

E|----------------2-------5-----10--12/13--10--------------------------------------------
B|-------------3-----4/5-----------------------------------------------------------------
G|----------4--------------------------------------11/12--10------11/12--10--------------
D|--6--4h5-------------------------------------12-------------12-------------12--10--12--
A|---------------------------------------------------------------------------------------
E|---------------------------------------------------------------------------------------

Stave 5:

E|---------------------5--
B|-------------7--4/5-----
G|-------4--7-------------
D|--4h5-------------------
A|------------------------
E|------------------------

http://www.guitartabcreator.com
Guitar Tab Creator is intended to store guitar tab created through the tool. It currently does not support in-line text editing. Any text you place in here will be lost. If you need to comment on your tab, please use the "Tab Notes" section located below.