Sound will begin in 5 seconds

brown eyed may 21 77

01234567891011121314151617181920212223
E
B
G
D
A
E
B
0 1 2 3 4 5 6 7 8 9 10 11 12 13 14 15 16 17 18 19 20 21 22 23
Song Science #1: How Pros Use 6 Chords to Write Hit Songs
(/) Slide Up  (\) Slide Down  (h) Hammer On  (p) Pull Off  (b) Bend (r) Release (v) Vibrato

Stave 1:

E|--------------------------------------------------------------------------------------
B|----------------------------------------------12------14--12--------------------------
G|-------------------------9------9------11/13------13----------13-----13\11--9---------
D|--------9h11--11--10/11-----11-----11------------------------------------------11/13--
A|--9/11--------------------------------------------------------------------------------
E|--------------------------------------------------------------------------------------

Stave 2:

E|-------------------------------------------------------------------------------
B|-------------------------------------------------------------------------------
G|--11h13------11---------11-------------------------------9---------9h11p9------
D|---------13------12h13------13--13\11--9------9--10--11-----10h11----------11--
A|------------------------------------------11-----------------------------------
E|-------------------------------------------------------------------------------

Stave 3:

E|----------------------------------------------------------------------------------------------
B|---------12------14--12-----------------------------------------------------------------------
G|--11/13------13----------13--13\11--9------9h11p9------9--------------------------------------
D|---------------------------------------11----------11-----11--9------9h11p9--9--9-------------
A|-----------------------------------------------------------------11----------------9h11p9--7--
E|----------------------------------------------------------------------------------------------

Stave 4:

E|------------------------------------------------------------------------------------------------
B|------------------------------------------------------------------------------------------------
G|------------------------------------------------------------------------------------------------
D|-------------------------------------------------------9--11--9------9--------------------------
A|--11\9--7----------7--7--7-----7-----7--9/11-----9/11------------11-----11\9--7--11\9--7-----7--
E|-----------9--7h9-----------9-----9-------------------------------------------------------9-----

Stave 5:

E|---------------------------------------------------------------------------------
B|---------------------------------12----------12h14p12------12h14--12---------12--
G|----------------9------9--11/13------13--13------------13-------------11/13------
D|--9--10--10/11-----11------------------------------------------------------------
A|---------------------------------------------------------------------------------
E|---------------------------------------------------------------------------------

Stave 6:

E|--------------14--------------14------------------------------------------------------------------
B|--14--15--16------16--16--14------16--16\14--12--12p10----------10-------------10------12p10--10--
G|--------------------------------------------------------11--11---------9h11p9------11-------------
D|--------------------------------------------------------------------------------------------------
A|--------------------------------------------------------------------------------------------------
E|--------------------------------------------------------------------------------------------------

Stave 7:

E|------------------------------------------------------------------------------------------------------
B|--12-----14p12h14p12----------12--14------------9-----------------------------------------------------
G|----------------------13--13-------------11b13-----12--11--9------11b13------9------------------------
D|--------------------------------------------------------------11---------11-----11--9------9h11p9--9--
A|---------------------------------------------------------------------------------------11-------------
E|------------------------------------------------------------------------------------------------------

Stave 8:

E|--------------------------------------------------------------------------------------------------
B|--------------------------------------------------------------------------------------------------
G|---------------------------------------------------------------9-------------------------------9--
D|------------------------------------------9---------9--10--11-----11--9------9------9--10--11-----
A|--11\9--7--10\9--7-----7h9p7-----7--9/11-----10h11-----------------------11-----11----------------
E|--------------------9---------9-------------------------------------------------------------------

Stave 9:

E|------------------------------------------------------------------------------------------------
B|-------------12---------------------------------------------------9-----------------------------
G|------11b13------13r11--9------9----------------9------9--11--12-----12--11--9------9h11p9------
D|--11-----------------------11-----9--10--10/11-----11---------------------------11----------11--
A|------------------------------------------------------------------------------------------------
E|------------------------------------------------------------------------------------------------

Stave 10:

E|----------------------------------------------------------------------------------------------
B|-----------------------------------------------------------12-----10--10-----10---------------
G|--9----------------------------------------------------11-----------------9------11p9------9--
D|-----11p9------9h11p9--------9---------------9--11/13----------------------------------11-----
A|-----------11----------9h11-----11p9--9--11---------------------------------------------------
E|----------------------------------------------------------------------------------------------

Stave 11:

E|---------------------------------------------------------------------------------------------
B|----------------------------------------------12------12--14--12-----------------------------
G|------9---------------9----------9--9--11/13------13--------------13\11--9--12\11--9------9--
D|--11-----11-----9/11-----11--11-------------------------------------------------------11-----
A|---------------------------------------------------------------------------------------------
E|---------------------------------------------------------------------------------------------

Stave 12:

E|---------------------------------------------------------------------------
B|----------------------------------------------------------------------9\0--
G|-------------------------------------------------------------------9-------
D|--11p9------9h11p9----------------------------------------------9----------
A|--------11----------11\9--7-------7-----7-----7-----7-----9/11-------------
E|-----------------------------7h9-----9-----9-----9-----9-------------------

http://www.guitartabcreator.com
Guitar Tab Creator is intended to store guitar tab created through the tool. It currently does not support in-line text editing. Any text you place in here will be lost. If you need to comment on your tab, please use the "Tab Notes" section located below.