Sound will begin in 5 seconds

Stains

01234567891011121314151617181920212223
E
B
G
D
A
E
B
0 1 2 3 4 5 6 7 8 9 10 11 12 13 14 15 16 17 18 19 20 21 22 23
Top Courses in Music 160x600
(/) Slide Up  (\) Slide Down  (h) Hammer On  (p) Pull Off  (b) Bend (r) Release (v) Vibrato

Stave 1:

E|---------------------------------------0-----0---
B|-2-----2-----------------------------------------
G|---2-----2---2-1---2-1-----2-----2---1-----1-----
D|-------------------------4-----4-----------------
A|-----------------------------------------0-----0-
E|-----0-----0-----4-----4-----2-----2-------------

Stave 2:

E|-------------------------------------------------12-------12----
B|----------------------------------------------------------------
G|-9-11-7-9-11-7-7-9-6-7-9-6-9-11-14-9-11-14----13----14-13----14-
D|----------------------------------------------------------------
A|----------------------------------------------------------------
E|----------------------------------------------------------------

Stave 3:

E|-------------------------------
B|---------3---------------------
G|-------2-------2-----1-------2-
D|-----0---------------------2---
A|---0---------4-----2-----0-----
E|-0---------4-----2-----2-------

Stave 4:

E|---------------------------------
B|-------------------------------3-
G|-------9-----9-------6-------2---
D|-----7-------------4-------0-----
A|---7-------7-----4-------0-------
E|-7-------6-----4-------0---------

Stave 5:

E|-------------------------------------------------------------------------------------------------
B|---7---7---7---7---7---7---7---7----10----10----10----10----10----10----10----10---5---5---5---5-
G|-9---9---9---9---9---9---9---9---11----11----11----11----11----11----11----11----6---6---6---6---
D|-------------------------------------------------------------------------------------------------
A|-------------------------------------------------------------------------------------------------
E|-------------------------------------------------------------------------------------------------

Stave 6:

E|---------------------------------12----------------------12-------------
B|---5---5----12----12----12----12----12----12----12----12----12----12----
G|-4---4---13----13----14----14----------14----14----14----------14----14-
D|------------------------------------------------------------------------
A|------------------------------------------------------------------------
E|------------------------------------------------------------------------

http://www.guitartabcreator.com
Guitar Tab Creator is intended to store guitar tab created through the tool. It currently does not support in-line text editing. Any text you place in here will be lost. If you need to comment on your tab, please use the "Tab Notes" section located below.