Sound will begin in 5 seconds

OH - 1013

01234567891011121314151617181920212223
E
B
G
D
A
E
B
0 1 2 3 4 5 6 7 8 9 10 11 12 13 14 15 16 17 18 19 20 21 22 23
Top Courses in Music 160x600
(/) Slide Up  (\) Slide Down  (h) Hammer On  (p) Pull Off  (b) Bend (r) Release (v) Vibrato

Stave 1:

F|--------------------------
C|--------------------------
G|--------1--------4--------
C|--4--3-----1--2-----0--0--

Stave 2:

F|-----------------------------
C|-----------------------------
G|-----------------1--2--1-----
C|--0--2--1--3--4-----------1--

Stave 3:

F|-----------------------
C|-----------------------
G|--1--------------------
C|-----2--1--4--1--2--1--

Stave 4:

F|--------------------------------
C|--------------------------------
G|--1--------------1--------------
C|-----3--4--1--6-----3--4--1--4--

Stave 5:

F|-----------------------------------
C|-----------------------------------
G|--------1--------------1-----------
C|--1--0-----3--4--1--0-----4--3--2--

Stave 6:

F|--------------------------------
C|--------------------------------
G|--------------------------------
C|--1--1--1--1--1--1--1--1--1--1--

Stave 7:

F|--------------------------------------
C|--------------------------------------
G|--1-----------------4-----------------
C|-----3--2--4--1--0-----3--2--1--1--1--

http://www.guitartabcreator.com
Guitar Tab Creator is intended to store guitar tab created through the tool. It currently does not support in-line text editing. Any text you place in here will be lost. If you need to comment on your tab, please use the "Tab Notes" section located below.