Sound will begin in 5 seconds

Fat Lip (kingdoms)

Chords
01234567891011121314151617181920212223
E
B
G
D
A
E
B
0 1 2 3 4 5 6 7 8 9 10 11 12 13 14 15 16 17 18 19 20 21 22 23
Top Courses in Music 160x600
(/) Slide Up  (\) Slide Down  (h) Hammer On  (p) Pull Off  (b) Bend (r) Release (v) Vibrato

Stave 1:

Db|-----------------------------------------------
Ab|-----------------------------------------------
E |-----------------------------------------------
B |------------9----------------------------------
F |-------------------------12------------12--10--
B |--9--10--0-----9--10--0------9--10--0----------

Stave 2:

Db|-----------------------------------------------
Ab|-----------------------------------------------
E |-----------------------------------------------
B |------------7--7--5--5-------------------------
F |-----10--9--5--5--3--3--9--10--9------------5--
B |--5-------------------------------10--9--7--5--

Stave 3:

Db|------------
Ab|------------
E |------------
B |------------
F |--5--2--10--
B |--5--2--10--

Stave 4:

Db|-------------------------
Ab|-------------------------
E |-------------------------
B |--5--0--2----------------
F |--5--0--2--9--10--9--10--
B |--5--0--2--9--10--9--10--

Stave 5:

Db|--------|--|--|-----------|--|--|--|-----------------
Ab|--------|--|--|-----------|--|--|--|-----------------
E |--------|--|--|-----------|--|--|--|-----------------
B |--------|--|--|--------5--|--|--|--|--------------7--
F |--5--5--|--|--|--5--5--3--|--|--|--|--5--5--5--5--5--
B |--5--5--|--|--|--5--5-----|--|--|--|--5--5--5--5-----

Stave 6:

Db|---------------------------------------------------------
Ab|---------------------------------------------------------
E |----------12-------------12------------9-----------------
B |------12------12-----12------12-----9-----9--------------
F |--10--------------9--------------7---------------10------
B |---------------------------------------------10------10--

http://www.guitartabcreator.com
Guitar Tab Creator is intended to store guitar tab created through the tool. It currently does not support in-line text editing. Any text you place in here will be lost. If you need to comment on your tab, please use the "Tab Notes" section located below.