Sound will begin in 5 seconds

nobodys fault but mine

Chords
01234567891011121314151617181920212223
E
B
G
D
A
E
B
0 1 2 3 4 5 6 7 8 9 10 11 12 13 14 15 16 17 18 19 20 21 22 23
Song Science #1: How Pros Use 6 Chords to Write Hit Songs
(/) Slide Up  (\) Slide Down  (h) Hammer On  (p) Pull Off  (b) Bend (r) Release (v) Vibrato

Stave 1:

E|-----------------------|--------------------------|--------------------------|---------------------|--
B|--3p0--0--3p0--0--3--3b|--3p0--0--3p0--0----------|--3p0--0--3--3b3--0-------|---------------------|--
G|-----------------------|------------------0--2b0--|---------------------2p0--|--2p1--1--2p1--1--1--|--
D|-----------------------|--------------------------|--------------------------|------------------2--|--
A|-----------------------|--------------------------|--------------------------|------------------2--|--
E|-----------------------|--------------------------|--------------------------|------------------0--|--

Stave 2:

E|--------------------------|-----------------------|--
B|--------------------------|-----------------------|--
G|--------------------------|--------------------2--|--
D|--2p0--0---------------2--|--2p0--0------------2--|--
A|----------2p0--0-------2--|----------2p0-------0--|--
E|------------------3b0--0--|---------------3b0-----|--

Stave 3:

E|--------------------------------------|--------------------------------------------------|--
B|--------------------------------------|------------------------------9--9--9--10--9--10--|--
G|--7--------7-----------------9--x--9--|--7--------7------------------9--9--9--9---9--9---|--
D|--7-----7--7-----7--7-----9--9--x--9--|--7-----7--7-----7--7---------9--9--9--11--9--11--|--
A|--5--0--0--5--0--0--5-----7--7--x--7--|--5--0--0--5--0--0--5--10h11----------------------|--
E|-----------------------0--------------|--------------------------------------------------|--

Stave 4:

E|-----------------------------------------------------------------|--
B|-----------------------------------------------------------------|--
G|-----------------------------------------------------------------|--
D|-----------------------------------------------------------------|--
A|--2--4--5--7-----7--7--7--7-----7--7--7--7-----7--7--7--7-----7--|--
E|--0--2--3--5-----5--5--5--5-----5--5--5--5-----5--5--5--5-----5--|--

Stave 5:

E|---------------------|------------------|-----------------|-----------|--------------|--
B|---------------------|------------------|-----------------|-----------|--------------|--
G|---------------------|------------------|-----------------|-----------|--------------|--
D|---------------------|------------------|-----------------|-----------|--------------|--
A|--14--12--12--12-----|--12--9--9--9-----|--9--7--7--7-----|--7--5-----|--2--2--2-----|--
E|--12--10--10--10-----|--10--7--7--7-----|--7--5--5--5-----|--5--3-----|--0--0--0-----|--

http://www.guitartabcreator.com
Guitar Tab Creator is intended to store guitar tab created through the tool. It currently does not support in-line text editing. Any text you place in here will be lost. If you need to comment on your tab, please use the "Tab Notes" section located below.