Sound will begin in 5 seconds

Nothing Else Matters

Chords
01234567891011121314151617181920212223
E
B
G
D
A
E
B
0 1 2 3 4 5 6 7 8 9 10 11 12 13 14 15 16 17 18 19 20 21 22 23
Song Science #1: How Pros Use 6 Chords to Write Hit Songs
(/) Slide Up  (\) Slide Down  (h) Hammer On  (p) Pull Off  (b) Bend (r) Release (v) Vibrato

Stave 1:

E|-----------0-----------------0-----------------0-----------------0-----7--7--------7p0--------------
B|--------0-----0-----------0-----0-----------0-----0-----------0-----0--------0-----0----0-----0-----
G|-----0-----------0-----0-----------0-----0-----------0-----0--------------------0----------0-----0--
D|----------------------------------------------------------------------------------------------------
A|----------------------------------------------------------------------------------------------------
E|--0-----------------0-----------------0-----------------0-----------------0-------------------0-----

Stave 2:

E|--7--8--7h8/5--7--5/3p0--0--------2p0-----------------0-----0--0--------------3p0--------0--0-----
B|--0--0---------0---------5-----5-------5-----------5-----5--5--5--------5----------5-----5--7-----
G|-------------------------5--5-------------5-----5--------5--5--5-----5-----5----------5--5--7-----
D|--------------------------------------------------------------------------------------------------
A|-------------------------0-------------------0-----------0--2--3--3----------------------3--5--5--
E|--------------------------------------------------------------------------------------------------

Stave 3:

E|-----------0h5b0-----------------------12-----------------0-----------------0-----------------0--------
B|-----7------------7p0--0h7---------12------0-----------0-----0-----------0-----0-----------0-----0-----
G|--7-----7----------------------12-------------0-----0-----------0-----0-----------0-----0-----------0--
D|-------------------------------------------------------------------------------------------------------
A|-------------------------------------------------------------------------------------------------------
E|----------------------------0--------------------0-----------------0-----------------0-----------------

Stave 4:

E|--------------7--------------------------------7--------------------------------7-----5-----------3--
B|--------------8--------9--------5--------------8--------9--------5--------------8--------7-----------
G|-----------9-----------9--------5-----------9-----------9--------5-----------9--------------7--------
D|--------9-----------7--------5-----------9-----------7--------5-----------9--------------------------
A|-----7-----------5--------3-----------7-----------5--------3-----------7-----------5-----------3-----
E|--0--------------------------------0--------------------------------0--------------------------------

Stave 5:

E|-----------3-----------2-------------------0-----------------0-----------------3-----0--------2--3--------0--------
B|--5-----------3-----------4-------------0-----0-----------0-----0-----------0-----------0-----------3--------3-----
G|-----5-----------4-----------4-------0-----------0-----0-----------0-----0--------0--------0-----------0--------0--
D|--------------------------------7/5-----------------------------------------------------------0--------------------
A|--------3-----------2-------------------------------------------------------------------------------------3--------
E|--------------------------------0-------------------0-----------------0--------------------------------------------

Stave 6:

E|-----------------3-----0--------2----------------------------------3-----0--------2--3--------3-----
B|--------------0-----------0--------3-------3-----3--------------0-----------0-----------3--------3--
G|-----------0--------0--------0--------2p0-----0--------------0--------0--------0-----------0--------
D|--------------------------------0-------------------------------------------------0-----------------
A|-------------------------------------------3--------------------------------------------------3-----
E|--3--2--0-------------------------------------------3--2--0-----------------------------------------

Stave 7:

E|-----------3--2-----2-----------0--------0-----------------0--------------------3-----0--------2--3--
B|-----------3--0--------0--------------0-----0-----------0-----0--------------0-----------0-----------
G|--0-----0-----2--2--------2--------0-----------0-----0--------------------0--------0--------0--0-----
D|-----------------------------------------------------------------------------------------------------
A|--------------2--------------------------------------------------------------------------------------
E|-----3-----------------------0--------------------0--------------3--2--0-----------------------------

Stave 8:

E|--------0-----------------------3-----0--------2----------------------------------3-----0--------2--
B|--3--------3-----------------0-----------0--------3-------3-----3--------------0-----------0--------
G|-----0--------0-----------0--------0--------0--------2p0-----0--------------0--------0--------0-----
D|-----------------------------------------------0-------------------------------------------------0--
A|--------3-------------------------------------------------3-----------------------------------------
E|-----------------3--2--0-------------------------------------------3--2--0--------------------------

Stave 9:

E|--
B|--
G|--
D|--
A|--
E|--

http://www.guitartabcreator.com
Guitar Tab Creator is intended to store guitar tab created through the tool. It currently does not support in-line text editing. Any text you place in here will be lost. If you need to comment on your tab, please use the "Tab Notes" section located below.