Sound will begin in 5 seconds

God Is Able (B Original Key) Capo 4, Actual Frets

Chords
01234567891011121314151617181920212223
E
B
G
D
A
E
B
0 1 2 3 4 5 6 7 8 9 10 11 12 13 14 15 16 17 18 19 20 21 22 23
Song Science #1: How Pros Use 6 Chords to Write Hit Songs
(/) Slide Up  (\) Slide Down  (h) Hammer On  (p) Pull Off  (b) Bend (r) Release (v) Vibrato

Stave 1:

E|-----9\7--7--9--9\7--7-----11--12--12--11-----9\7--7--9--9\7--------------7--
B|-----------------------------------------------------------------7--9--9-----
G|-----------------------------------------------------------------------------
D|-----------------------------------------------------------------------------
A|-----------------------------------------------------------------------------
E|-----------------------------------------------------------------------------

Stave 2:

E|-----------------------6-----------------------------4--------
B|--------7--4--------7-----7-----------7-----------------5-----
G|-----4-----------------------------4-----4--------4-----------
D|--8--------------8--------------6--------------6--------------
A|--------------------------------------------------------------
E|--------------------------------------------------------------

Stave 3:

E|-----------------------6--------------------------------------------------------
B|--------7--4--------7-----7-----------4-----5-----5-----7-----7-----7-----7-----
G|-----4-----------------------------4-----4-----4-----4--------------------------
D|--8--------------8--------------6--------------------------8-----8-----8-----8--
A|--------------------------------------------------------------------------------
E|--------------------------------------------------------------------------------

Stave 4:

E|-----------------------------------------------------------------------------------------------------------
B|-----------------------------------------------------------------------------------------------------------
G|--11--11--11--11--11--9--9--8--6--6--6--6--------------11--11--11--11--8--8--6--6--9--9--9--9--9--9--9--9--
D|-------------------------------------------8--8--9--9------------------------------------------------------
A|-----------------------------------------------------------------------------------------------------------
E|-----------------------------------------------------------------------------------------------------------

Stave 5:

E|------|------|------|------|------|--12--
B|--12--|--14--|--12--|--14--|--12--|--12--
G|--11--|--11--|--11--|--11--|--11--|--11--
D|--11--|--11--|--11--|--11--|--11--|------
A|------|------|------|------|------|------
E|------|------|------|------|------|------

http://www.guitartabcreator.com
Guitar Tab Creator is intended to store guitar tab created through the tool. It currently does not support in-line text editing. Any text you place in here will be lost. If you need to comment on your tab, please use the "Tab Notes" section located below.