Sound will begin in 5 seconds

Good Good Father

Chords
01234567891011121314151617181920212223
E
B
G
D
A
E
B
0 1 2 3 4 5 6 7 8 9 10 11 12 13 14 15 16 17 18 19 20 21 22 23
Top Courses in Music 160x600
(/) Slide Up  (\) Slide Down  (h) Hammer On  (p) Pull Off  (b) Bend (r) Release (v) Vibrato

Stave 1:

E|----------7-------------7--------------12-------------12---------------
B|------10-----10-----10-----10------10------10-----10------10-----------
G|--11-------------9-------------11--------------9-----------------------
D|-----------------------------------------------------------------------
A|-----------------------------------------------------------------------
E|-----------------------------------------------------------------------

Stave 2:

E|--12--9---9---7-------9---7------9---9---7-------9---7--------
B|--10--10--12--10--10--10--9--10--10--12--10--10--10--9--------
G|--11--9---11--9---11--9---7--11--9---11--9---11--9---7--------
D|--12--11--9---7---12--11--9--12--11--9---7---12--11--9--------
A|------9---9---7-------9---7------9---9---7-------9---7--------
E|----------9---_---------------------9------------------------

http://www.guitartabcreator.com
Guitar Tab Creator is intended to store guitar tab created through the tool. It currently does not support in-line text editing. Any text you place in here will be lost. If you need to comment on your tab, please use the "Tab Notes" section located below.