Sound will begin in 5 seconds

Depeche Mode - Enjoy the Silence

Chords
01234567891011121314151617181920212223
E
B
G
D
A
E
B
0 1 2 3 4 5 6 7 8 9 10 11 12 13 14 15 16 17 18 19 20 21 22 23
Top Courses in Music 160x600
(/) Slide Up  (\) Slide Down  (h) Hammer On  (p) Pull Off  (b) Bend (r) Release (v) Vibrato

Stave 1:

E|--------------
B|--------------
G|--------------
D|--------------
A|--------3--1--
E|--1--4--------

Stave 2:

E|-----------------------------------------------------------
B|-----------------------------------------------------------
G|-----5-----7--------5-----3--------5-----7--------5-----3--
D|--5-----5--------5-----5--------5-----5--------5-----5-----
A|-----------------------------------------------------------
E|-----------------------------------------------------------

Stave 3:

E|-----------------------------------------------------------
B|-----------------------------------------------------------
G|--------------------5-----3-----------------------5-----3--
D|-----6-----5-----5-----5-----------6-----5-----5-----5-----
A|--6-----6-----------------------6-----6--------------------
E|-----------------------------------------------------------

Stave 4:

E|--3--6--4--4--
B|--4--7--4--4--
G|--5--8--5--5--
D|--5--8--6--6--
A|--3--6--6--6--
E|--------4--4--

Stave 5:

E|--1--4--3--1-----1--4--3--2--
B|--1--4--4--3-----1--4--4--4--
G|--1--5--5--3-----1--5--5--4--
D|--3--6--5--3-----3--6--5--4--
A|--3--6--3--1-----3--6--3--2--
E|--1--4--3--1-----1--4--3--2--

Stave 6:

E|--------------------------------------------------------
B|--------------------------------------------------------
G|-----5-----7--------8-----3--------3-----0-----3-----0--
D|--5-----5--------5-----5--------5-----5-----5-----5-----
A|--------------------------------------------------------
E|--------------------------------------------------------

http://www.guitartabcreator.com
Guitar Tab Creator is intended to store guitar tab created through the tool. It currently does not support in-line text editing. Any text you place in here will be lost. If you need to comment on your tab, please use the "Tab Notes" section located below.