Sound will begin in 5 seconds

Polly On the Shore

Chords
01234567891011121314151617181920212223
E
B
G
D
A
E
B
0 1 2 3 4 5 6 7 8 9 10 11 12 13 14 15 16 17 18 19 20 21 22 23
Top Courses in Music 160x600
(/) Slide Up  (\) Slide Down  (h) Hammer On  (p) Pull Off  (b) Bend (r) Release (v) Vibrato

Stave 1:

D|--0-----------------------0--------0-----------
A|-----------------------3-----------0-----------
G|--2--0--------------4--------------2--0--------
D|--------2--0-----2--------------0--------4--0--
A|--------------3--------------------------------
D|-----5-----------------------0-----------------

Stave 2:

D|-----------------------------0--------------0--
A|-----0-----5--------------0-----0--3--0--3-----
G|--0-----0-----5--------4-----0-----------------
D|-----0--------------0-----------------------0--
A|-----------------------------------3--0--3-----
D|--5--------5-----5--------0--------------------

Stave 3:

D|-----------0--2--0-----------------------------
A|--0--2-----0--------3--------------------0-----
G|--2-----0--0-----------------2--0-----0-----0--
D|--0-----------------------4--------0-----------
A|-----------2-----0-----------------------------
D|--0--------------------4--------5-----------5--

Stave 4:

D|-----------------------------------0--------0--0--0--0--
A|--------------0-----------------7-----------0-----------
G|-----------0-----0-----------5--------------2--0--------
D|--------3-----------3-----7--------------0--------4--0--
A|-----3-----------------0--------------------------------
D|--3-----------------------------------0-----------------

http://www.guitartabcreator.com
Guitar Tab Creator is intended to store guitar tab created through the tool. It currently does not support in-line text editing. Any text you place in here will be lost. If you need to comment on your tab, please use the "Tab Notes" section located below.