Sound will begin in 5 seconds

Sam's New Stuff 8

Chords
01234567891011121314151617181920212223
E
B
G
D
A
E
B
0 1 2 3 4 5 6 7 8 9 10 11 12 13 14 15 16 17 18 19 20 21 22 23
Song Science #1: How Pros Use 6 Chords to Write Hit Songs
(/) Slide Up  (\) Slide Down  (h) Hammer On  (p) Pull Off  (b) Bend (r) Release (v) Vibrato

Stave 1:

D|--------------------------------------------------------------------------
A|--------------------------------------------------------------------------
F|-----1--------1--------1--------1--------1--------1--------1--------1-----
C|--------3--------3--------3--------3--------2--------2--------2--------2--
G|--3--------3--------3--------3--------2--------2--------2--------2--------
C|--------------------------------------------------------------------------

Stave 2:

D|--------------------------------------------------------------------------
A|--------------------------------------------------------------------------
F|-----3--------3--------3--------3--------3--------3--------3--------3-----
C|--------5--------5--------5--------5--------4--------4--------4--------4--
G|--5--------5--------5--------5--------4--------4--------4--------4--------
C|--------------------------------------------------------------------------

Stave 3:

D|---------------------------------------------------|--------------------------------------------------
A|---------------------------------------------------|--------------------------------------------------
F|-----9--------9--------9-----10--------9--------9--|-----7--------7--------7-----8--------7--------7--
C|--------9--------9---------------9--------9--------|--------7--------7--------------7--------7--------
G|--7--------7--------7-----7---------7--------7-----|--5--------5--------5-----5--------5--------5-----
C|---------------------------------------------------|--------------------------------------------------

Stave 4:

D|-----0--------0--------0-----0--------0--------0-----0--------0--------0-----0--------0--------0--
A|--------6--------6--------------5--------5--------------5--------5--------------0--------0--------
F|--7--------7--------7-----6--------6--------6-----5--------5--------5-----4--------4--------4-----
C|--0-----------------------------------------------------------------------------------------------
G|--------------------------------------------------------------------------------------------------
C|--------------------------------------------------------------------------------------------------

http://www.guitartabcreator.com
Guitar Tab Creator is intended to store guitar tab created through the tool. It currently does not support in-line text editing. Any text you place in here will be lost. If you need to comment on your tab, please use the "Tab Notes" section located below.