Sound will begin in 5 seconds

Sam's New Stuff 6

Chords
01234567891011121314151617181920212223
E
B
G
D
A
E
B
0 1 2 3 4 5 6 7 8 9 10 11 12 13 14 15 16 17 18 19 20 21 22 23
Song Science #1: How Pros Use 6 Chords to Write Hit Songs
(/) Slide Up  (\) Slide Down  (h) Hammer On  (p) Pull Off  (b) Bend (r) Release (v) Vibrato

Stave 1:

E|----------------------------------------
B|----------------------------------------
G|----------------------------------------
D|--------9--------9-----------7--9p7-----
A|--7--------7--------7--9-------------9--
E|--0--------0-----------0----------------

Stave 2:

E|--9--12--9----------------------------------------------------------
B|------------12--9--12/14--12--14------11-----9--9--12---------------
G|------------------------------14--11------9------------9--11--7--9--
D|--------------------------------------------------------------------
A|--------------------------------------------------------------------
E|--------------------------------------------------------------------

Stave 3:

E|------------------------------------------------------
B|--------------------------5--7/10--10--9--7--9--7--5--
G|--------------------5--7------------------------------
D|--7--9--7--5--5--7------------------------------------
A|------------------------------------------------------
E|------------------------------------------------------

Stave 4:

E|--------------------4--6--7--5-------------------------------------------
B|--------------4--6--------------7--5--9--8-------------------------------
G|--------3--5--------------------------------9--8---------------7--9--12--
D|--3--5--------------------------------------------10--9--7--9------------
A|-------------------------------------------------------------------------
E|-------------------------------------------------------------------------

http://www.guitartabcreator.com
Guitar Tab Creator is intended to store guitar tab created through the tool. It currently does not support in-line text editing. Any text you place in here will be lost. If you need to comment on your tab, please use the "Tab Notes" section located below.