Sound will begin in 5 seconds

Sam's New Stuff 5

01234567891011121314151617181920212223
E
B
G
D
A
E
B
0 1 2 3 4 5 6 7 8 9 10 11 12 13 14 15 16 17 18 19 20 21 22 23
Song Science #1: How Pros Use 6 Chords to Write Hit Songs
(/) Slide Up  (\) Slide Down  (h) Hammer On  (p) Pull Off  (b) Bend (r) Release (v) Vibrato

Stave 1:

E|----------------------------------------------------------
B|--6--------------------6--5-----------------------2--3/6--
G|-----7--------------7--------6--2-----------3--2----------
D|--------7--------7-----------------3--3--2----------------
A|-----------8--8-------------------------------------------
E|----------------------------------------------------------

Stave 2:

E|-----------------------------------------------------------------
B|--6--------------------6--5-----------------------2--------------
G|-----7--------------7--------6--2-----------3--2-----3p2p0--3/6--
D|--------7--------7-----------------3--3--2-----------------------
A|-----------8--8--------------------------------------------------
E|-----------------------------------------------------------------

Stave 3:

E|---------------------------------------------------------------------------
B|--12h18-----15--------11h18-----14--------10h18-----13--------9h12-----17--
G|---------------------------------------------------------------------------
D|---------------------------------------------------------------------------
A|---------------------------------------------------------------------------
E|---------------------------------------------------------------------------

http://www.guitartabcreator.com
Guitar Tab Creator is intended to store guitar tab created through the tool. It currently does not support in-line text editing. Any text you place in here will be lost. If you need to comment on your tab, please use the "Tab Notes" section located below.