Sound will begin in 5 seconds

Sam's New Stuff 3

Chords
01234567891011121314151617181920212223
E
B
G
D
A
E
B
0 1 2 3 4 5 6 7 8 9 10 11 12 13 14 15 16 17 18 19 20 21 22 23
Song Science #1: How Pros Use 6 Chords to Write Hit Songs
(/) Slide Up  (\) Slide Down  (h) Hammer On  (p) Pull Off  (b) Bend (r) Release (v) Vibrato

Stave 1:

B|---------------------------------------------
G|---------------------------------------------
D|---------------------------------------------
A|-------12----12-13-12-10-------12-0-12-13-15-
E|----12----12----------------12---------------
A|-12----------------------12------------------

Stave 2:

B|-----------------------------------------------------|--------------------------
G|-----------------------------------------------------|--------------------------
D|-----------------------------------------------------|--------------------------
A|-----------------------------------------------------|--------------------------
E|------------------------------------13-12-12-11-10-9-|------------------12------
A|-0-0-0-0-0-0-0-12-13----0-0-0-0-0-0-------10-9--8--7-|-12-12-12h13-0-10----10-9-

http://www.guitartabcreator.com
Guitar Tab Creator is intended to store guitar tab created through the tool. It currently does not support in-line text editing. Any text you place in here will be lost. If you need to comment on your tab, please use the "Tab Notes" section located below.