Sound will begin in 5 seconds

Living Tension Bass - FP Verse 1, Bridge 1, Verse 2, Bridge 2.

Chords
01234567891011121314151617181920212223
E
B
G
D
A
E
B
0 1 2 3 4 5 6 7 8 9 10 11 12 13 14 15 16 17 18 19 20 21 22 23
Song Science #1: How Pros Use 6 Chords to Write Hit Songs
(/) Slide Up  (\) Slide Down  (h) Hammer On  (p) Pull Off  (b) Bend (r) Release (v) Vibrato

Stave 1:

G|----------------------|--
D|--5--7--4-------2-----|--
A|--3--5--2--2h3--------|--
E|-------------------0--|--

Stave 2:

G|--------------------------------|-----------------------------------------4--
D|--3--2--------------------3--5--|--3--2-----------------2--4-----4--4--7-----
A|--------3--0--0-----2--5--------|--------3--0--0-----2-----------------------
E|-----------------3--------------|-----------------3--------------------------

Stave 3:

G|--2--4--5-----5--------------------------------------
D|-----------------5-----------------------------------
A|--------------------3-----3--2-----------------------
E|--------------------------------3--2-----3--3--2--0--

Stave 4:

G|--------------------------------------|--------------------------------------4--5--
D|--3--4--5-----------------------------|--3--4--5--------------------------5--------
A|-----------3--2--0--------------0--2--|-----------3--2--0--3--2--0-----5-----------
E|--------------------1--1--2--3--------|-----------------------------3--------------

http://www.guitartabcreator.com
Guitar Tab Creator is intended to store guitar tab created through the tool. It currently does not support in-line text editing. Any text you place in here will be lost. If you need to comment on your tab, please use the "Tab Notes" section located below.