Sound will begin in 5 seconds

guitar 7

Chords
01234567891011121314151617181920212223
E
B
G
D
A
E
B
0 1 2 3 4 5 6 7 8 9 10 11 12 13 14 15 16 17 18 19 20 21 22 23
Song Science #1: How Pros Use 6 Chords to Write Hit Songs
(/) Slide Up  (\) Slide Down  (h) Hammer On  (p) Pull Off  (b) Bend (r) Release (v) Vibrato

Stave 1:

E|---------------------------------------
B|---------------------------------------
G|-----9--10-----------------------------
D|--0--9--10-----7--8--7-----------------
A|------------------------8--7--5--4--5--
E|---------------------------------------

Stave 2:

E|--------------5--------------------5--4-----------
B|-----------6-----6--------------6--------5--------
G|--------7-----------7--------7--------------6-----
D|-----7-----------------7--5--------------------7--
A|--5-----------------------------------------------
E|--------------------------------------------------

Stave 3:

E|------------------------------------------------------------
B|-----------10--8-----------10--8-----------10--8------------
G|--9--9--9---------9-----9---------9-----9---------9---------
D|-----------------------------------------------------10--9--
A|------------------------------------------------------------
E|------------------------------------------------------------

Stave 4:

E|--------------------------------------
B|--------------------------------------
G|--------------------------------------
D|--4--5--2-----------4--5--2-----------
A|--2--3--0--5--4--3--2--3--0--4--5--4--
E|-----------3--2--1-----------2--3--2--

http://www.guitartabcreator.com
Guitar Tab Creator is intended to store guitar tab created through the tool. It currently does not support in-line text editing. Any text you place in here will be lost. If you need to comment on your tab, please use the "Tab Notes" section located below.