Sound will begin in 5 seconds

Guitar 2

Chords
01234567891011121314151617181920212223
E
B
G
D
A
E
B
0 1 2 3 4 5 6 7 8 9 10 11 12 13 14 15 16 17 18 19 20 21 22 23
Song Science #1: How Pros Use 6 Chords to Write Hit Songs
(/) Slide Up  (\) Slide Down  (h) Hammer On  (p) Pull Off  (b) Bend (r) Release (v) Vibrato

Stave 1:

E|--------------------------|--------------------------|--
B|--------------------------|--------3--5-----6--5--3--|--
G|--------2--5--2-----------|-----4--------7-----------|--
D|-----3-----------3--2--3--|--5-----------------------|--
A|--5-----------------------|--------------------------|--
E|--------------------------|--------------------------|--

Stave 2:

E|-------------------------------------------------
B|--5--------------------1-------------------------
G|-----5--------------2-----1----------------------
D|--------3--------2-----------2-----------2-------
A|-----------5--3-----------------3--------2-------
E|-----------------------------------3--1--0--3/5--

Stave 3:

E|--------------------------|-----------------------
B|--------------------------|-----------------------
G|--------------------------|--8h9h10---------------
D|--6--7--9--6/7--9--10--7--|-----------------9--7--
A|--------------------------|----------6h7h8--------
E|--------------------------|-----------------------

Stave 4:

E|--------------10--9------|--------------10--9-----|--------------10--9--------------
B|----------11---------10--|----------11---------9--|----------11---------10--9\6--7--
G|------12-----------------|------12----------------|------12-------------------------
D|--12---------------------|--12--------------------|--12-----------------------------
A|-------------------------|------------------------|---------------------------------
E|-------------------------|------------------------|---------------------------------

http://www.guitartabcreator.com
Guitar Tab Creator is intended to store guitar tab created through the tool. It currently does not support in-line text editing. Any text you place in here will be lost. If you need to comment on your tab, please use the "Tab Notes" section located below.